» » »

Bela Fleck And The Flecktones, Sojourn Of Arjuna Tabs (ver.1)

Artists:  A B C D E F G H I J K L M N O P Q R S T U V W X Y Z # 

Sojourn Of Arjuna Tabs (ver.1)

Bela Fleck And The Flecktones Tabs
 Rating:
4/5 (4 votes)
Sojourn Of Arjuna lessons Tabs too difficult? Try these video lessons and learn fast
                 

I’ll just transcribe the main riffs of the instruments to guitar.

Bass in the beginning:

|------------|
|------------|
|---------0--|
|---2--0-----|
|0-----------|

Saxophone Riff directly after spoken intro:

|--10-----------------------------------|
|--------12----10---------8-------------|
|9-----9-----9-----7h9h11---11-9-7------|
|----------------------------------9~---|
|---------------------------------------|
|---------------------------------------|

Main Riff played by Saxophone and Banjo

|------------------------------------------------------------------------|
|-------------------------------------------------------11-12------------|
|--9-9----9-11-12-9-------------------9--------9-11-12--------9-9-----9--|
|9-----12-----------9-12-12-9-12-9-12---9-9-12---------------------12----|
|------------------------------------------------------------------------|
|------------------------------------------------------------------------|

Main Riff addition:

|-------------------------------------------------------------------|
|-------------------------------------------------------------------|
|-------9----------------------------------------9-11-12-11-9-------|
|9----9---12-9----------9-10-9-------9-9----9-12--------------12-9--|
|--12----------12-10-12--------12-10-----12-------------------------|
|-------------------------------------------------------------------|

|-----------------------------------|
|12-12-13-15-13-12------------------|
|------------------14-12-11-9-------|
|-----------------------------12-9--|
|-----------------------------------|
|-----------------------------------|


|----------------------------------------|
|-----------------------11-12------------|
|-----9--------9-11-12--------9-9-----9--|
|9-12---9-9-12---------------------12----|
|----------------------------------------|
|----------------------------------------|

Bass key change at 2:48 :

|------------------------------------------------------|
|------------------------------------------------------|
|------------------------------------------------------|
|0-2-3~--2-0-----------------------1-2~-1~-0~----------|
|------------3~--3-2-0--2~-4~-3~-2----------------2h3--|
|---------------------------------------------0h1------|

Improvise around this minor pentatonic scale:

|------------------------------12-15--|
|------------------------12-15--------|
|------------------12-14--------------|
|------------12-14--------------------|
|------12-14--------------------------|
|12-15--------------------------------|
            
Submit corrections

comments powered by Disqus
↑ Back to top | Bela Fleck And The Flecktones Tabs for Sojourn Of Arjuna. Lyrics for acoustic guitar and electric guitar. Tablatures and chords are parodies/interpretations of the original songs. You may use it for private study, scholarship, research or language learning purposes only