» » »

Behemoth, The Dance Of The Pagan Flames Tabs (ver.1)

Artists:  A B C D E F G H I J K L M N O P Q R S T U V W X Y Z # 

The Dance Of The Pagan Flames Tabs (ver.1)

Behemoth Tabs
Rating:
0/5 (0 votes)
The Dance Of The Pagan Flames lessons Tabs too difficult? Try these video lessons and learn fast
                Tuning standard E:

E A D G B e

RIFF 1

|--------------------|
|--------------------|
|--------------------|
|-7-----10---9--7--5-|
|-5-----8----7--5--3-|
|--------------------|

RIFF 2: Tremolo picking

|------------------------------|
|------------------------------|
|-------2-0---0----------------|
|-0-2-3-----3---3-2-3-0-2--0---|
|----------------------------2-|
|------------------------------|

RIFF 3: Tremolo picking, it's hard to hear it over the keyboard

|-----------------------------------|
|-----------------------------------|
|-----------------------------------|
|-----------------------------------|
|-9--7-9--8--6-8--9--7-9--10--12-10-|
|-----------------------------------|

RIFF 4: Listen carefully to the song for timing

|--------------------------------|
|--------------------------------|
|--------------------------------|
|-2---7-5-4-5-4-0-5--7-5-4-5-4-0-|
|-0---------------3--------------|
|--------------------------------|

RIFF 5: Tremolo picking, it's pretty difficult to play correctly, so pay attention

|---------------------------------|
|---------------------------------|
|-----------4-2-0-----------5-4-2-|
|---5-4-2-----------5-4-2---------|
|-2-------3-------2-------3-------|
|---------------------------------|

RIFF 6: Play this chord to end the song

|---|
|---|
|-2-|
|-0-|
|---|
|---|

That's all guys! It's a quite simple song after all :) listen to it to figure out how
many times you have to repeat the riffs :) I plaied it listening to the song, it sounds
good, i'm pretty sure it's 100% correct ^_^
If you find mistakes ora wanna talk about black metal and death metal, mail me at:

HAIL YLLIA!
            

comments powered by Disqus
↑ Back to top | Behemoth Tabs for The Dance Of The Pagan Flames. Lyrics for acoustic guitar and electric guitar. Tablatures and chords are parodies/interpretations of the original songs. You may use it for private study, scholarship, research or language learning purposes only