>
 >
Lam

Lam Guitar Tabs

Behemoth - Lam chords, tabs, tablatures, lyrics

Guitar lessons | Add/correct | Request | Top 50 tabs Artists:  A B C D E F G H I J K L M N O P Q R S T U V W X Y Z 0-9

Lam Guitar Tabs – Behemoth

CD, Sheet music, Poster

Do you like Lam? Share with your friends now
Tabs
I & II Guitar (Riff 1)
E-------------------------------------
B-------------------------------------
G-------------------------------------
D-------------------------------------
A--2222222--4444444--5555555--2222222-
E--0000000--2222222--3333333--0000000-


I Guitar (Riff 2A)
E------------------------------------------------------------------------
B------------------------------------------------------------------------
G------------------------------------------------------------------------
D----------9--7-------------5--4------------9--7---------------10-9------
A----------7--5-------------3--2------------7--5----------------8-7------
E------000--------------000-------------000----------------000-----------

E------------------------------------------------------------------------
B------------------------------------------------------------------------
G------------------------------------------------------------------------
D----------9--7-------------5--4------------9--7-------------------------
A----------7--5-------------3--2------------7--5----------------^7-------
E------000--------------000-------------000----------------000-----------


II Guitar (Riff 2B)
E------------------------------------------------------------------------
B------------------------------------------------------------------------
G------------------------------------------------------------------------
D -----------------------------------------------------------------------
A-----------2-2-----------2-2-----------4-4-----------4-4----------------
E---0-0-0---0-0---0-0-0---0-0---2-2-2---2-2---2-2-2---2-2----------------

E------------------------------------------------------------------------
B------------------------------------------------------------------------
G------------------------------------------------------------------------
D------------------------------------------------------------------------
A-----------5-5-----------5-5-----------2-2------------^7----------------
E---3-3-3---3-3---3-3-3---3-3---0-0-0---0-0---0-0-0----------------------


I & II Guitar (2,5 A)
E------------------------------------------------------------------------
B------------------------------------------------------------------------
G------------------------------------------------------------------------
D------------------------------------------------------------------------
A---2222222--------------------------------------------------------------
E---0000000--------------------------------------------------------------


II Guitar (Riff 3A)
E-------------------|-----------|-----------------|-----------|-----------------|----------|
B-------------------|-----------|-----------------|-----------|-----------------|----------|
G-------------------|-----------|-----------------|-----------|-----------------|----------|
D-------------------|-----------|-----------------|-----------|-----------------|----------|
A-------------------|--4444444--|-----------------|--5555555--|-----------------|--2222222-|
E---310-310-310-310-|--2222222--|-310-310-310-310-|--3333333--|-310-310-310-310-|--0000000-|


I Guitar (Riff 3A2)
E-------------------|-----------|-----------------|-----------|-----------------|----------|
B-------------------|-----------|-----------------|-----------|-----------------|----------|
G-------------------|-----------|-----------------|-----------|-----------------|----------|
D-------------------|-----------|-----------------|-----------|-----------------|----------|
A-------------------|--4444444--|-----------------|--5555555--|-----------------|--2222222-|
E-------------------|--2222222--|-----------------|--3333333--|-----------------|--0000000-|


II Guitar (Riff 3B)
E---------------------------------------------------------------------------------------
B---------------------------------------------------------------------------------------
G---------------------------------------------------------------------------------------
D---2~~2--------------------4~~4---------------------5~~5--------------------2~~2-------
A---2~~2--------------------4~~4---------------------5~~5--------------------2~~2-------
E---0~~0--310-310-310-310---2~~2---310-310-310-310---3~~3---310-310-310-310--0~~0-------


I Guitar (Riff 3C)
E----------------------------------------------------------------------------------------
B----------------------------------------------------------------------------------------
G----------------------------------------------------------------------------------------
D---2~~2--532-532-532-532---4~~4---532-532-532-532---5~~5---532-532-532-532--2~~2-------
A---2~~2--------------------4~~4---------------------5~~5--------------------2~~2-------
E---0~~0--------------------2~~2---------------------3~~3--------------------0~~0-------

Children of technocracy invoke synthetic spirits
Plastic crosses choke prespiring necks
MAAT - I cast dices, but curtain of future is still hermitic closed
Rise! Rise up my Soror, and you, my Frater
High! Towards the stars when the white fire
Wchich purifies and melts all false sacraments


I & II Guitar (Riff 4)
E-------------------------------------------------------------------------------------------
B-------------------------------------------------------------------------------------------
G-------------------------------------------------------------------------------------------
D--5----------------5-----2/5---5--------5-----2/5---5----------------5-----2/5----5--------
A--3--3--2----------3--3--4/7---3--3--3--3--3--4/7---3--3--2----------3--3--4/7----3--3--3--
E-----1--0--x0x0x0-----1-----------1--1-----1-----------1--0--x0x0x0-----1------------1--1--

    Asches` power equal thousands suns


I Guitar (Riff 5A)
E---------------------------------------------------------------------------------------------
B---------------------------------------------------------------------------------------------
G---------------------------------------------------------------------------------------------
D--2-----------9----8------------------2------------9----8------------------------------------
A--2-----------7----6------------------2------------7----6----9-9-9----10---10----13----------
E--0------------------------987-987----0---------------------x7x7x7----x8---x8----11----------


II Guitar (Riff 5B)
E-----------------------------------------------------------------------------------------
B-----------------------------------------------------------------------------------------
G-------------------------------------------------12-11-----------------------------------
D--2-----------9----8-------------------2---------------14-13-----------------------------
A--2-----------7----6-------------------2----------------------9-9-9----10---10----13-----
E--0-------------------------987-987----0---------------------x7x7x7----x8---x8----11-----

Mysterys` structures are like chaos of known


I Guitar (Riff 5A)
E-----------------------------------------------------------------------------------
B-----------------------------------------------------------------------------------
G-----------------------------------------------------------------------------------
D--2----------9--8---------------------2---------9--8-------------------------------
A--2----------7--6----------10-9-7-----2---------7--6-------------------------------
E--0------------------987--------------0----------------------7~~8~~11--------------


II Guitar (Riff 5B)
E-----------------------------------------------------------------------------------------
B-----------------------------------------------------------------------------------------
G-------------------------------------------------12-11-----------------------------------
D--2-----------9----8-------------------2---------------14-13-----------------------------
A--2-----------7----6-------------------2-------------------------------------------------
E--0-------------------------987-987----0----------------------7~~8~~11-------------------

Objectivism is subjective mandala of reality


I Guitar (Riff 5A)
E------------------------------------------------------------------------------
B------------------------------------------------------------------------------
G------------------------------------------------------------------------------
D--2-----9--8--------------------------2------9--8-----------------------------
A--2-----7--6--------------------------2------7--6----------------------^7-----
E--0----------------------987--987-----0----------------------777777777--------


II Guitar (Riff 5B)
E------------------------------------------------------------------------------
B------------------------------------------------------------------------------
G-------------------------------------------------12-11------------------------
D--2-----------9----8-------------------2---------------14-13------------------
A--2-----------7----6-------------------2-------------------------------^7-----
E--0-------------------------987-987----0---------------------777777777--------

Fractals - flaming spaces consume ego`s order...


I Guitar (Riff 5A)
E---------------------------------------------------------
B---------------------------------------------------------
G---------------------------------------------------------
D--2-----9--8-----------------2-----9--8------------------
A--2-----7--6--------10-9-7---2-----7--6-----9-10--13-----
E--0------------987-----------0--------------7~~8~~11-----


II Guitar (Riff 5B)
E---------------------------------------------------------
B---------------------------------------------------------
G--------------------------------12-11--------------------
D--2-----9--8-----------------2-------14-13---------------
A--2-----7--6--------10-9-7---2--------------9-10--13-----
E--0------------987-----------0--------------7~~8~~11-----


I Guitar (Riff 6A)
E---------------------------------------------------------------------------------
B---------------------------------------------------------------------------------
G-------------------------------12--11---------555--------------------------------
D---2---------9---------8---------------9--------------------------7----------9---
A---2---------7---------6-------------------333---333--------------5----------7---
E---0 x0x0x0-----x0x0x0-------------------------------444---x0x0x0-----x0x0x0-----


II Guitar (Riff 6B)
E------------------------------------------------------------------------------------
B------------------------------------------------------------------------------------
G-------------------------------------------------555--------------------------------
D---2--------9----------8---------------------------------------------7----------9---
A---2--------7----------6------------9---------333---333--------------5----------7---
E---0-x0x0x0-----x0x0x0-----x0x0x0---7--x0x0x0----------444----x0x0x0-----x0x0x0-----


I Guitar solo
E---------------------------------------------------------------------12-------12----
B---------------------12---10--------------12---10-----------------15-------15-------
G---12~~--12~~11~~---------------12---11--------------12---11---16-------16----------
D------------------------------------------------------------------------------------
A------------------------------------------------------------------------------------
E------------------------------------------------------------------------------------

E--------12--------12--------12-------12---12^~~-----------------------------
B-----15--------15--------15-------15--------------15^--15^15^15^------------
G--16--------16--------16-------16--------------16-------------------16------
D----------------------------------------------------------------------------
A----------------------------------------------------------------------------
E----------------------------------------------------------------------------

E---12^12^12^12^--------
B-----------------------
G-----------------------
D-----------------------
A-----------------------
E-----------------------


II Guitar (Riff 7A)
E--------------------------------------
B--------------------------------------
G--------------------------------------
D--------------------------------------
A--------------------------------------
E--00000-00000-00000-00000-00000-------

Kaos,  Keraunos, Kybernetos


II Guitar
E-------------------------------------------------
B-------------------------------------------------
G-------------------------------------------------
D-------------------------------------------------
A-------------------------------------------------
E----00000-00000-00000-00000-00000-00000-00000----


I Guitar (Riff 7B)
E---------------------------------------------------------------
B---------------------------------------------------------------
G------------------------555------------------------------------
D--------------------------------------------7---------9--------
A-------7~~--6~~------3~~----3~~-------------5---------7--------
E---0~~----------~~7-------------4~~--x0x0x0----x0x0x0----------


III Guitar (Riff 7C)
E------------------------------------|-----12^12^12^12^-----|---------
B------------------------------------|----------------------|---------
G------------------------------------|----------------------|---------
D------------------------------------|----------------------|---------
A------------------------------------|----------------------|---------
E------------------------------------|----------------------|---------

Lamipsos


II Guitar (Riff 8A)
E-------------        E---------------------------------------------------       E---------------------------
B-------------        B---------------------------------------------------       B---------------------------
G-------------  x8    G--------------------------------------------------- X3    G---------------------------
D-------------        D---------------------------------------------------       D---------------------------
A-------------        A-44444-44444-44444-44444-22222-22222-22222-22222---       A-44444-44444-44444-44444---
E-00000-------        E-22222-22222-22222-22222-00000-00000-00000-00000---       E-22222-22222-22222-22222---


I Guitar (Riff 8B) (I`m not sure...)
E------------------------------------------------------------------------
B------------------------------------------------------------------------
G------------------------------------------------------------------------
D------------------------------------------------------------------------
A---777---77788888888-121212101010888101010888-7-7/88888888--------------
E------888---------------------------------------------------------------


III Guitar (Riff 8C)
E------------------------------------------------------------------------
B------------------------------------------------------------------------
G--------------10~~12-10-9-10-9-7-7/9~~--7-9-10~~12-10-9-10-9-7----------
D------------------------------------------------------------------------
A------------------------------------------------------------------------
E------------------------------------------------------------------------

E-151412---------       E-131210---------     E-151412---------       E-131210---------
B-------151412---       B-------131210---     B-------151412---       B-------131210---
G---------------- X4    G---------------- X4  G---------------- X4    G---------------- X4
D----------------       D----------------     D----------------       D----------------
A----------------       A----------------     A----------------       A----------------
E----------------       E----------------     E----------------       E----------------

E--------------------------------
B---12^~~~~~~~~~~~~~~~~~~~~------
G--------------------------------
D--------------------------------
A--------------------------------
E--------------------------------


THE ***ING END!!!!

In order now:

Guitar I	Guitar II	Guitar III
R 1         R 1
R 2A x4     R 2B x4
R 2,5A      R 2,5A
R 3A        R 3A2
R C         R B
R 2A x4     R 2B x4
R 4         R 4
R 5A        R 5B
R 6A x2     R 6B x2
solo        R 6B x2
R 7A        -----
R 7A        R 7B		R 7C
R 6A x2	R 6B x2     R 7C
R 8B		R 8A		R 8C
R 2A x4     R 2B x4
R 2,5A      R 2,5A





Comments


Popular Behemoth tabs & chords
Escaping From Hell Bass Tabs
Fields Of Haar Meggido Bass Tabs
Ov Fire And The Void Bass Tabs
Prometherion Bass Tabs
Lucifer Tabs
Nephilim Rising Tabs
Reign Ov Shemsu-hor Tabs
Sculpting The Throne Ov Seth 1 Tabs
The Alchemist's Dream Tabs
With Spell Of Inferno Tabs


Song lyrics



↑ Back to top | Tablatures and chords are parodies/interpretations of the original songs. You may use it for private study, scholarship, research or language learning purposes only
© 2014 AZChords.com Contact us | Privacy policy | DMCA | Add/correct tabs | Request tabs | Top 50 tabs