>
 >
Kriegsphilosophie

Kriegsphilosophie Guitar Tabs

Behemoth - Kriegsphilosophie chords, tabs, tablatures, lyrics

Guitar lessons | Add/correct | Request | Top 50 tabs Artists:  A B C D E F G H I J K L M N O P Q R S T U V W X Y Z 0-9

Kriegsphilosophie Guitar Tabs – Behemoth

CD, Sheet music, Poster

Do you like Kriegsphilosophie? Share with your friends now
Tabs
Awesome song! That's all I have to say!

Key: 

h = hammer on 
p = pull off 
. = palm mute
()= bend 

Tuning: D,A,D,G,B,E 


Riff 1: 

first play this 
|-----------------------------------------------------------(1)-------(1)|
|------------------------------------------------------------------------|
|------------------------------------------------------------------------|
|-2--------2--------3--------3--------6--------6-5-3---------------------|
|-0-00-000-0-00-000-1-00-000-1-00-000-4-00-000-4-3-1---------------------|
|---00-000---00-000---00-000---00-000---00-000--------1-2-1-----1-2-1----|
    .. ...   .. ...   .. ...   .. ...   .. ...        . . .     . . .         
then repeat this 
|------------------------------------------------------------------------|
|------------------------------------------------------------------------|
|------------------------------------------------------------------------|
|-2--------2--------3--------3--------6--------6-5-3---------------------|
|-0-00-000-0-00-000-1-00-000-1-00-000-4-00-000-4-3-1---------------------|
|---00-000---00-000---00-000---00-000---00-000---------------------------|
    .. ...   .. ...   .. ...   .. ...   .. ...             

Riff 2: 

Basically same thing but slower 

|-----------------------------------------------------------------------|
|-----------------------------------------------------------------------|
|-----------------------------------------------------------------------|
|-2-----2-----3-----3-----6-----6-5-3-----------------------------------|
|-0-2-3-0-2-3-1-2-3-1-2-3-4-2-3-4-3-1-----------------------------------|
|---2-3---2-3---2-3---2-3---2-3-----------------------------------------| 
    . .   . .   . .   . .   . .  

Riff 3: 

Play this once
|---------------------------|
|---------------------------|
|---------------------------|
|-10-9h10p9-6-2-------------|
|---------------------------|
|---------------------------| 

Riff 4 (chorus): 

Tremlo Pick
|-----------------------------------------------------------------------|
|--------------------------------999121212------------------------------|
|---------------------999121212-----------------------------------------|
|-----------999121212---------------------------------------------------|
|-999121212----------------------------------6-5-3-5-3-2----------------|
|--------------------------------------------6-5-3-5-3-2----------------| 
(Those are twelves not ones and twos) 

|-----------------------------------------------------------------------|
|-----------------------------------------------------------------------|
|----------121212111111999111111999888----------------------------------|
|------10---------------------------------------------------------------|
|-9-12------------------------------------------------------------------|
|-----------------------------------------------------------------------| 
  . .
(Once again, those are twelves and elevens not ones and twos) 

back to Riff 2:

|-----------------------------------------------------------------------|
|-----------------------------------------------------------------------|
|-----------------------------------------------------------------------|
|-2-----2-----3-----3-----6-----6-5-3-----------------------------------|
|-0-2-3-0-2-3-1-2-3-1-2-3-4-2-3-4-3-1-----------------------------------|
|---2-3---2-3---2-3---2-3---2-3-----------------------------------------| 
    . .   . .   . .   . .   . .  

then Riff 1: 

|------------------------------------------------------------------------|
|------------------------------------------------------------------------|
|------------------------------------------------------------------------|
|-2--------2--------3--------3--------6--------6-5-3---------------------|
|-0-00-000-0-00-000-1-00-000-1-00-000-4-00-000-4-3-1---------------------|
|---00-000---00-000---00-000---00-000---00-000---------------------------|
    .. ...   .. ...   .. ...   .. ...   .. ...             

Riff 3: 

Play this once
|---------------------------|
|---------------------------|
|---------------------------|
|-10-9h10p9-6-2-------------|
|---------------------------|
|---------------------------| 

then Riff 4 (chorus): 

Tremlo Pick
|-----------------------------------------------------------------------|
|--------------------------------999121212------------------------------|
|---------------------999121212-----------------------------------------|
|-----------999121212---------------------------------------------------|
|-999121212----------------------------------6-5-3-5-3-2----------------|
|--------------------------------------------6-5-3-5-3-2----------------| 


|------------------------------------------------------------------------|
|------------------------------------------------------------------------|
|----------121212111111999111111999888-----------------------------------|
|------10----------------------------------------------------------------|
|-9-12-------------------------------------------------------------------|
|------------------------------------------------------------------------| 
  . .

Riff 5: (play twice) 

tremlo pick
|--------------------------------------|
|--------------------------------------|
|--------------------------------------|
|--------------------------------------|
|-777777666666333333-------------------|
|--------------------------------------|
play several times then bend at the end 

|--------------------------------------|
|--------------------------------------|
|--------------------------------------|
|--------------------------------------|
|-77777766666633333(3)-----------------|
|--------------------------------------|

back to normal 

tremlo pick
|--------------------------------------|
|--------------------------------------|
|--------------------------------------|
|--------------------------------------|
|-777777666666333333-------------------|
|--------------------------------------|

then this 

|---------------------------------------------------------------------|
|---------------------------------------------------------------------|
|---------------------------------------------------------------------|
|---------------------------------------------------------------------|
|-5h8p5-5h8p5-7h10p7-7h10p7-8h11p8-8h11p8-8h11p8-8h11p8-8h11p8-8h11p8-|
|---------------------------------------------------------------------| 

tremlo pick (play once)
|-------------------------------(5)----|
|--------------------------------------|
|--------------------------------------|
|--------------------------------------|
|-777777666666333333--4-3-4-3----------|
|---------------------4-3-4-3----------|

Solo: 

|-------------------------------------------------------|
|-(12)--10-9-6-9-10-6-9-6-5--6-7-6-7-8-7-(9)------------|
|-------------------------------------------------------|
|-------------------------------------------------------|
|-------------------------------------------------------|
|-------------------------------------------------------| 

|-12p11p9---(12)-11p10p8----(11)-10p9p7----(10)-5-6---(6)------------|
|---------12--------------11-------------10----------8---------------|
|--------------------------------------------------------------------|
|--------------------------------------------------------------------|
|--------------------------------------------------------------------|
|--------------------------------------------------------------------|

Riff 2:

|-----------------------------------------------------------------------|
|-----------------------------------------------------------------------|
|-----------------------------------------------------------------------|
|-2-----2-----3-----3-----6-----6-5-3-----------------------------------|
|-0-2-3-0-2-3-1-2-3-1-2-3-4-2-3-4-3-1-----------------------------------|
|---2-3---2-3---2-3---2-3---2-3-----------------------------------------| 
    . .   . .   . .   . .   . .  

|-----------------------------------------------------------------------|
|-------------------------------------------------------(15)-13-12-(15)-|
|-------------------------------------12-13-15-13-15-16-----------------|
|-------------------12-13-15-13-15-16-----------------------------------|
|-12-13-15-13-15-16-----------------------------------------------------|
|-----------------------------------------------------------------------|
  .  .  .  .  .  .  .  .  .  .  .  .

|-------------------(14)-----|
|-15-16-15-16-13-12----------|
|----------------------------|
|----------------------------|
|----------------------------|
|----------------------------| 

Riff 5: (play once) 

tremlo pick
|--------------------------------------|
|--------------------------------------|
|--------------------------------------|
|--------------------------------------|
|-777777666666333333-------------------|
|--------------------------------------|
play several times then bend at the end 

|--------------------------------------|
|--------------------------------------|
|--------------------------------------|
|--------------------------------------|
|-77777766666633333(3)-----------------|
|--------------------------------------|

back to normal 

tremlo pick
|--------------------------------------|
|--------------------------------------|
|--------------------------------------|
|--------------------------------------|
|-777777666666333333-------------------|
|--------------------------------------|

then this 

|---------------------------------------------------------------------|
|---------------------------------------------------------------------|
|---------------------------------------------------------------------|
|---------------------------------------------------------------------|
|-5h8p5-5h8p5-7h10p7-7h10p7-8h11p8-8h11p8-8h11p8-8h11p8-8h11p8-8h11p8-|
|---------------------------------------------------------------------| 

tremlo pick (play once)
|------------------------------(5)----|
|--------------------------------------|
|--------------------------------------|
|--------------------------------------|
|-777777666666333333--4-3-4-3----------|
|---------------------4-3-4-3----------|

Outro: just continuously play this

tremlo pick
|--------------------------------------|
|--------------------------------------|
|--------------------------------------|
|--------------------------------------|
|-777777666666333333-------------------|
|--------------------------------------|





Comments


Popular Behemoth tabs & chords
Moonspell Rites 2 Bass Tabs
Conquer All 1 Tabs
Grom Tabs
Horns Of Baphomet Tabs
Inflamed With Rage 1 Tabs
Lucifer Tabs
Lucifer Intro Tabs
Lucifer Intro 1 Tabs
Ov Fire And The Void 1 Tabs
Ov Fire And The Void 2 Tabs


Song lyrics



↑ Back to top | Tablatures and chords are parodies/interpretations of the original songs. You may use it for private study, scholarship, research or language learning purposes only
© 2014 AZChords.com Contact us | Privacy policy | DMCA | Add/correct tabs | Request tabs | Top 50 tabs