» » »

Behemoth, Horns Of Baphomet Tabs (ver.1)

Artists:  A B C D E F G H I J K L M N O P Q R S T U V W X Y Z # 

Horns Of Baphomet Tabs (ver.1)

Behemoth Tabs
 Rating:
4/5 (4 votes)
Horns Of Baphomet lessons Tabs too difficult? Try these video lessons and learn fast
                |---------------------------------------|
|---------------------------------------|
|---------------------------------------|
|----4-3------------4-3-----------------|
|-4------4-2-5----4------4--------------|
|---------------------------4-5-4-2-1---|

Riff 2
|------------------------------|
|------------------------------|
|------------------------------|
|------------------------------|
|-4-5-4-5----------------------|
|------------------------------|


|------------------------------|
|------------------------------|
|------------------------------|
|-----6-2-6-6-6------6-2-5-4---|
|-4-------4-4-4--4-------------|
|------------------------------|
          . . .

Riff3
tremelo pick really fast.watch for timing
|-----------------------------|
|-----------------------------|
|---------6-7-----------------|
|------------6----------------|
|--4----------5---------------|
|----4------------------------|

repeat
|------------------------------|
|------------------------------|
|------------------------------|
|-6-6-6-6----------------------|
|-4-4-4-4----------------------|
|------------------------------|
  . . . .

SOLO



2nd Part
|-17-16-14-16-14-13-14-13-10-13-|
|-------------------------------|
|-------------------------------|
|-------------------------------|
|-------------------------------|
|-------------------------------|


Ending riff
|---------------------------------------|
|---------------------------------------|
|---------------------------------------|
|----4-3------------4-3-----------------|
|-4------4-2-5----4------4--------------|
|---------------------------4-5-4-2-1---|

|------------------------------|
|------------------------------|
|------------------------------|
|-6-6-6-6----------------------|
|-4-4-4-4----------------------|
|------------------------------|
  . . . .


|----------------------------------------|
|-14-12-14-15-14-------------------------|
|----------------13-14-13-11-10-7-6------|
|----------------------------------------|
|----------------------------------------|
|----------------------------------------|
            
Submit corrections

comments powered by Disqus
↑ Back to top | Behemoth Tabs for Horns Of Baphomet. Lyrics for acoustic guitar and electric guitar. Tablatures and chords are parodies/interpretations of the original songs. You may use it for private study, scholarship, research or language learning purposes only