» » »

Behemoth, Heru Ra Ha Tabs (ver.1)

Artists:  A B C D E F G H I J K L M N O P Q R S T U V W X Y Z # 

Heru Ra Ha Tabs (ver.1)

Behemoth Tabs
Rating:
0/5 (0 votes)
Heru Ra Ha lessons Tabs too difficult? Try these video lessons and learn fast
                Intro
|-------------|
|-------------|
|-------------|
|-2-3---2-----|
|-----5---5-3-|
|-------------|

Riff 1
|-----------------------------------------------------|
|-----------------------------------------------------|
|------------10-9-9-9\6-6-------------9-10-10-10/13-13|
|-----------------------------------------------------|
|------------8--7-7-7\4-4-------------7-8--8--8-/11-11|
|-000--0-0-0---------------000--0-0-0-----------------|
  ...  . . .               ...  . . .

|--------------------------------------------------|
|--------------------------------------------------|
|------------10-9-9-9\4-6-------------9-10-7-9-7-5-|
|--------------------------------------------------|
|------------8--7-7-7\4-6-------------7-8--5-7-5-3-|
|-000--0-0-0---------------000--0-0-0--------------|
  ...  . . .               ...  . . .

Riff 2
Gtr I
|------------------------------------------------|
|------------------------------------------------|
|------------------------------------------------|
|-5---8----4---5---------------------------------|
|-7---10---6---7---------------------------------|
|------------------8-7-5-7ph---5-5-7-8-7-5-4---1-|

Gtr II
|------------------------------------------------|
|------------------------------------------------|
|------------------------------------------------|
|------------------------------------------------|
|2-2-2-2-2-2-2-2---------------------------------|
|0-0-0-0-0-0-0-0---8-7-5-7ph---5-5-7-8-7-5-4---1-|
 . . . . . . . .

Riff 3
|------------------------------|
|------------------------------|
|------------------------------|
|------------------------------|
|-----------------7--8-7-5-7ph-|
|-000-000-000-000--------------|
  ... ... ... ...
|----------------------------------------|
|----------------------------------------|
|----------------------------------------|
|----------------------------------------|
|-----------------22223355332"-----------|
|-000-000-000-000--------------5"4"1"1ph-|
  ... ... ... ...


Riff 4
Play 1-2-3 and finish w/1-4
Gtr I
 1.   This X3            2.      3.             4.
|------------------|-------|--------------|---------|
|------------------|-------|--------------|---------|
|------------------|-------|--------------|---------|
|------9-----------|--7-6--|-7----------3-|-7---3---|
|------7--10-8-7-8-|-7----8|-5----------1-|-5---1---|
|-0--0-------------|-------|--------------|---------|
  .  .

Gtr II
|------------------|-------|--------------|---------|
|------------------|-------|--------------|---------|
|------------------|-------|--------------|---------|
|------9-----------|--7-6--|--------------|-7----3--|
|------7--10-8-7-8-|-7---8-|5785785785783-|-5----1--|
|-0--0-------------|-------|------------1-|---------|
  .  .

Solo
|--------------------------------------------------------|
|-12---13-12-10-12---13-12-10-12-10----10----------------|
|-----------------------------------12----12-11-12-11-9--|
|-------------------------------------------------------9|
|--------------------------------------------------------|
|--------------------------------------------------------|

|----------------------------15---14h15p14---12---|
|---------------------12~~~-----------------------|
|-----------9-10-12-------------------------------|
|-9~~~11-12---------9-----------------------------|
|-------------------------------------------------|
|-------------------------------------------------|

|------------------------12---12-13-12-10-12\/12121212122020202020191919191919|
|-12---12-13-12-10-12-10------------------------------------------------------|
|-----------------------------------------------------------------------------|
|-----------------------------------------------------------------------------|
|-----------------------------------------------------------------------------|
|-----------------------------------------------------------------------------|

|--------------171717171717--------------------------------------------------|
|20202020202020------------181818181818\/171717171717151517171818151517171818|
|----------------------------------------------------------------------------|
|----------------------------------------------------------------------------|
|----------------------------------------------------------------------------|
|----------------------------------------------------------------------------|

|----------------------20201717----121212121210101212131312121010------------|
|1717171717151517171818--------1818------------------------------131312121010|
|----------------------------------------------------------------------------|
|----------------------------------------------------------------------------|
|----------------------------------------------------------------------------|
|----------------------------------------------------------------------------|

|-----------------------------------------------------------------|
|88-------------------------888101010121212101010888--------------|
|--1010997799999777999101010------------------------101010999779ph|
|-----------------------------------------------------------------|
|-----------------------------------------------------------------|
|-----------------------------------------------------------------|

Gtr II on Solo
|-------------------------------------------|
|-------------------------------------------|
|------9----------12----------7-------------|
|------9-----------9----------7-------------| Repeat X2
|------7----------10----------5-----2---3---|
|-0--0-------0--0--------0--0-------0---1---|
  .  .       .  .        .  .

|----------------|
|----------------|
|----------------|
|----------------|  X2
|-2-----3---3----|
|-0-----1-----1--|

Play Intro
Play Riff 1 X2

Outro
|----------|
|----------|
|----------|
|-7---3----|
|-5---1---2|
|---------0|
            
Submit corrections

comments powered by Disqus
↑ Back to top | Behemoth Tabs for Heru Ra Ha. Lyrics for acoustic guitar and electric guitar. Tablatures and chords are parodies/interpretations of the original songs. You may use it for private study, scholarship, research or language learning purposes only