» » »

Behemoth, Grom Tabs (ver.1)

Artists:  A B C D E F G H I J K L M N O P Q R S T U V W X Y Z # 

Grom Tabs (ver.1)

Behemoth Tabs
Rating:
0/5 (0 votes)
Grom lessons Tabs too difficult? Try these video lessons and learn fast
                behemoth
grom

Normal Tuning

Riff:1                               Riff:2
|-----------------------------------|-------------------------------|
|-----------------------------------|-------------------------------|
|-----------------------------------|-99101099-77551111--99101099-77|
|-999101010-556655--99101099-665566-|-778-8-77-55339-9---778-8-77-55|
|-7778-8-8--334433--778-8-77-443344-|-------------------------------|
|-----------------------------------|-------------------------------|


Cont.     Riff:3             Riff:4
|--------|------------------|---------------------------------------|
|--------|------------------|---------------------------------------|
|-554455-|-222555-222555777-|----111111-----------------------------|
|-332233-|-222555-222555777-|----9-9-9-111111-12-12-12-11-11--------|
|--------|-000333-000333555-|-222------9-9-9--10-10-10-9--9---------|
|--------|------------------|-000-----------------------------------|


Riff:5
|-------------------------------------------------------------------|
|-------------------------------------------------------------------|
|----5-5---------5-5---------5-5------4-----------------------------|
|-2--3-3-5-5--2--3-3-5-5--2--3-3-5-5--2--4--------------------------|
|-2--3-3-3-3--2--3-3-3-3--2--3-3-3-3-----2--------------------------|
|-0-----------0-----------0-----------------------------------------|


Riff:6
|-------------------------------------------------------------------|
|---------------------------h--p------------------------------------|
|----5--9-----------5--9--10-11-10-8--------------------------------|
|-2--3--7--------2--3--7-------------8~~----------------------------|Grt.1
|-2--3--7--------2--3--7--------------------------------------------|
|-0--------------0--------------------------------------------------|
|
|-------------------------------------------------------------------|
|-------------------------------------------------------------------|
|----5--9---10\-----5--9--------------------------------------------|
|-2--3--7-8------2--3--7--8-----------------------------------------|Gtr.2
|-2--3--7--------2--3--7--6-----------------------------------------|
|-0--------------0--------6-----------------------------------------|


Riff:7                    Fill:1
|------------------------|------------------------------------------|
|------------------------|------------------------------------------|
|----555999----555999----|------------------------------------------|
|----333777----333777888-|-(2)~~~~~~~~~~~~~~~~~~~~~~~~~-------------|
|-222-------222------666-|-(2)~~p~~~p~~~p~~~p~~~p~~~p~--------------|
|-000-------000----------|-(0)-3-0-3-0-3-0-3-0-3-0-3-0--------------|

keep it metal..
            

comments powered by Disqus
↑ Back to top | Behemoth Tabs for Grom. Lyrics for acoustic guitar and electric guitar. Tablatures and chords are parodies/interpretations of the original songs. You may use it for private study, scholarship, research or language learning purposes only