>
 >
Escaping From Hell

Escaping From Hell Bass Tabs

Behemoth - Escaping From Hell chords, tabs, tablatures, lyrics

Guitar lessons | Add/correct | Request | Top 50 tabs Artists:  A B C D E F G H I J K L M N O P Q R S T U V W X Y Z 0-9

Escaping From Hell Bass Tabs – Behemoth

CD, Sheet music, Poster

Do you like Escaping From Hell? Share with your friends now
Bass Tabs
G||--------------------------|--------------------------|
D||--------------------------|--------------------------|
A||--------------------------|--------------------------|
E||--------------------------|--------------------------|


                                                      
--------------------------|--------------------------|
--------------------------|--------------------------|
--------------------------|--------------------------|
--------------------------|--------------------------|


                                                                   
--------------------------------------|---------------------------|
--------------------------------------|---------------------------|
--------------------------------------|---------------------------|
--0--0--0--0--0--0--0--0--0--0--0--0--|--1------------------------|


                                                                   
--------------------------------------|---------------------------|
--------------------------------------|---------------------------|
--------------------------------------|---------------------------|
--0--0--0--0--0--0--0--0--0--0--0--0--|--1------------------------|


                                                                   
--------------------------------------|---------------------------|
--------------------------------------|---------------------------|
--------------------------------------|---------------------------|
--0--0--0--0--0--0--0--0--0--0--0--0--|--1------------------------|


                                                                   
--------------------------------------|---------------------------|
--------------------------------------|---------------------------|
--------------------------------------|--1------------------------|
--0--0--0--0--0--0--0--0--0--0--0--0--|---------------------------|


                                                                              
---------------------------------------|-------------------------------------|
---------------------------------------|-------------------------------------|
--7--7--7---8--7--7--7--7---10--7--10--|--7--7--7---8--7--7--7--7---8--7--8--|
---------------------------------------|-------------------------------------|


                                                                              
---------------------------------------|-------------------------------------|
---------------------------------------|-------------------------------------|
--7--7--7---8--7--7--7--7---10--7--10--|--7--7--7---8--7--7--7--7---8--7--8/-|
---------------------------------------|-------------------------------------|


                                                                   
--------------------------------------|---------------------------|
--------------------------------------|---------------------------|
--------------------------------------|---------------------------|
--0--0--0--0--0--0--0--0--0--0--0--0--|--1------------------------|


                                                                     
--------------------------------------|-----------------------------|
--------------------------------------|-----------------------------|
--------------------------------------|-----------------------------|
--0--0--0--0--0--0--0--0--0--0--0--0--|--1----------3----------5----|


                                                                  
-------------------------------------|---------------------------|
-------------------------------------|---------------------------|
-------------------------------------|---------------------------|
----0--0--0--0--0--0--0--0--0--0--0--|--1------------------------|


                                                                     
--------------------------------------|-----------------------------|
--------------------------------------|-----------------------------|
--------------------------------------|-----------------------------|
--0--0--0--0--0--0--0--0--0--0--0--0--|--1----------3----------5----|


                                                                  
-------------------------------------|---------------------------|
-------------------------------------|---------------------------|
-------------------------------------|---------------------------|
----0--0--0--0--0--0--0--0--0--0--0--|--1------------------------|


                                                                     
--------------------------------------|-----------------------------|
--------------------------------------|-----------------------------|
--------------------------------------|--1--------------------------|
--0--0--0--0--0--0--0--0--0--0--0--0--|-------------3----------1----|


                                                                  
-------------------------------------|---------------------------|
-------------------------------------|---------------------------|
-------------------------------------|---------------------------|
----0--0--0--0--0--0--0--0--0--0--0--|--1------------------------|


                                                                     
--------------------------------------|-----------------------------|
--------------------------------------|-----------------------------|
--------------------------------------|--1--------------------------|
--0--0--0--0--0--0--0--0--0--0--0--0--|-------------3----------1----|


                                                                  
-------------------------------------|---------------------------|
-------------------------------------|---------------------------|
-------------------------------------|---------------------------|
----0--0--0--0--0--0--0--0--0--0--0--|--1------------------------|


                                                                     
--------------------------------------|-----------------------------|
--------------------------------------|-----------------------------|
--------------------------------------|-----------------------------|
--0--0--0--0--0--0--0--0--0--0--0--0--|--1----------3----------5----|


                                                                   
--------------------------------------|---------------------------|
--------------------------------------|---------------------------|
--------------------------------------|---------------------------|
--0--0--0--0--0--0--0--0--0--0--0--0--|--1------------------------|


                                                                     
--------------------------------------|-----------------------------|
--------------------------------------|-----------------------------|
--------------------------------------|-----------------------------|
--0--0--0--0--0--0--0--0--0--0--0--0--|--1----------3----------5----|


                                             
--------------------------------------------|
--------------------------------------------|
--7---------------------3----------5--------|
-----0-0-0-0-3--0-0-0-0----0-0-0-0----0--0--|


                                             
--------------------------------------------|
--------------------------------------------|
--7---------------------3----------5--------|
-----0-0-0-0-3--0-0-0-0----0-0-0-0----0--0--|


                                             
--------------------------------------------|
--------------------------------------------|
--7---------------------3----------5--------|
-----0-0-0-0-3--0-0-0-0----0-0-0-0----0--0--|


                                             
--------------------------------------------|
--------------------------------------------|
--7---------------------3----------5--3--2--|
-----0-0-0-0-3--0-0-0-0----0-0-0-0----------|


                                     
------------------------------------|
------------------------------------|
--3--2--0--2--0---------------------|
-----------------3--5--3--2--0------|


                                                  
-------------------------------------------------|
-------------------------------------------------|
-------------------3--2--------------------------|
--0----0--0--3--5--------3--2--2--2--2--2--2--2--|


                                                  
-------------------------------------------------|
-------------------------------------------------|
----------------------5--3--0--0--0--0--0--0--0--|
--0----0--0--2--3--5-----------------------------|


                                                  
-------------------------------------------------|
-------------------------------------------------|
-------------------3--2--------------------------|
--0----0--0--3--5--------3--2--2--2--2--2--2--2--|


                                                                             
-------------------------------------------------|--------------------------|
-------------------------------------------------|--------------------------|
----------------------5--3--0--0--0--0--0--3--2--|--0--2--0-----------------|
--0----0--0--2--3--5-----------------------------|-----------3--5--3--2--0--|


                                                                   
--------------------------------------|---------------------------|
--------------------------------------|---------------------------|
--------------------------------------|---------------------------|
--0--0--0--0--0--0--0--0--0--0--0--0--|--1------------------------|


                                                                   
--------------------------------------|---------------------------|
--------------------------------------|---------------------------|
--------------------------------------|---------------------------|
--0--0--0--0--0--0--0--0--0--0--0--0--|--1------------------------|


                                                                     
--------------------------------------|-----------------------------|
--------------------------------------|-----------------------------|
--------------------------------------|-----------------------------|
--0--0--0--0--0--0--0--0--0--0--0--0--|--1----------3----------5----|


                                                                   
--------------------------------------|---------------------------|
--------------------------------------|---------------------------|
--------------------------------------|---------------------------|
--0--0--0--0--0--0--0--0--0--0--0--0--|--1------------------------|


                                                                     
--------------------------------------|-----------------------------|
--------------------------------------|-----------------------------|
--------------------------------------|-----------------------------|
--0--0--0--0--0--0--0--0--0--0--0--0--|--1----------3----------5----|


                                             
--------------------------------------------|
--------------------------------------------|
--7---------------------3----------5--------|
-----0-0-0-0-3--0-0-0-0----0-0-0-0----0--0--|


                                             
--------------------------------------------|
--------------------------------------------|
--7---------------------3----------5--------|
-----0-0-0-0-3--0-0-0-0----0-0-0-0----0--0--|


                                             
--------------------------------------------|
--------------------------------------------|
--7---------------------3----------5--------|
-----0-0-0-0-3--0-0-0-0----0-0-0-0----0--0--|


                                             
--------------------------------------------|
--------------------------------------------|
--7---------------------3----------5--3--2--|
-----0-0-0-0-3--0-0-0-0----0-0-0-0----------|


                                     
------------------------------------|
------------------------------------|
--3--2--0--2--0---------------------|
-----------------3--5--3--2--0------|


                                                  
-------------------------------------------------|
-------------------------------------------------|
-------------------3--2--------------------------|
--0----0--0--3--5--------3--2--2--2--2--2--2--2--|


                                                  
-------------------------------------------------|
-------------------------------------------------|
----------------------5--3--0--0--0--0--0--0--0--|
--0----0--0--2--3--5-----------------------------|


                                                  
-------------------------------------------------|
-------------------------------------------------|
-------------------3--2--------------------------|
--0----0--0--3--5--------3--2--2--2--2--2--2--2--|


                                                                             
-------------------------------------------------|--------------------------|
-------------------------------------------------|--------------------------|
----------------------5--3--0--0--0--0--0--3--2--|--0--2--0-----------------|
--0----0--0--2--3--5-----------------------------|-----------3--5--3--2--0--|


                                                  
------------------|------------------------------|
------------------|------------------------------|
------------------|------------------------------|
------------------|------------------------------|


                                                                           
------------------------------|-------------------------------------------|
------------------------------|-------------------------------------------|
------------------------------|-----------------2h-3-----2h-5-------------|
------------------------------|--0--0--0--0--0--------0--------3--2--0----|


                                            
-------------------------------------------|
-------------------------------------------|
-----------------2h-3-----2h-5-------------|
--0--0--0--0--0--------0--------3--2--0----|


                                            
-------------------------------------------|
-------------------------------------------|
-----------------2h-3-----2h-3-------------|
--0--0--0--0--0--------0--------3--2--0----|


                                            
-------------------------------------------|
-------------------------------------------|
-----------------2h-3-----2h-3-------------|
--0--0--0--0--0--------0--------3--2--0----|


                                            
-------------------------------------------|
-----------------2h-3-----2h-5-------------|
--0--0--0--0--0--------0--------3--2--0----|
-------------------------------------------|


                                            
-------------------------------------------|
-----------------2h-3-----2h-5-------------|
--0--0--0--0--0--------0--------3--2--0----|
-------------------------------------------|


                                            
-------------------------------------------|
-----------------2h-3-----2h-5-------------|
--0--0--0--0--0--------0--------3--2--0----|
-------------------------------------------|


                                            
-------------------------------------------|
-----------------2h-3-----2h-5-------------|
--0--0--0--0--0--------0--------3--2--0----|
-------------------------------------------|


                                             
--------------------------------------------|
-----------------7h-8-----7h-10-------------|
--5--5--5--5--5--------0---------8--7--5----|
--------------------------------------------|


                                             
--------------------------------------------|
-----------------7h-8-----7h-10-------------|
--5--5--5--5--5--------0---------8--7--5----|
--------------------------------------------|


                                             
--------------------------------------------|
-----------------7h-8-----7h-10-------------|
--5--5--5--5--5--------0---------8--7--5----|
--------------------------------------------|


                                             
--------------------------------------------|
-----------------7h-8-----7h-10-------------|
--5--5--5--5--5--------0---------8--7--5----|
--------------------------------------------|


                                            
-------------------------------------------|
-------------------------------------------|
-----------------2h-3-----2h-5-------------|
--0--0--0--0--0--------0--------3--2--0----|


                                            
-------------------------------------------|
-------------------------------------------|
-----------------2h-3-----2h-5-------------|
--0--0--0--0--0--------0--------3--2--0----|


                                            
-------------------------------------------|
-------------------------------------------|
-----------------2h-3-----2h-5-------------|
--0--0--0--0--0--------0--------3--2--0----|


                                                                             
-------------------------------------------|--------------------------------|
-------------------------------------------|--------------------------------|
-----------------2h-3-----2h-5-------------|--5--5-5-5-5-5-5-5--5-5-5-5-5-5-|
--0--0--0--0--0--------0--------3--2--0----|--------------------------------|


                                                                             
--------------------------------|-------------------------------------------|
--------------------------------|-------------------------------------------|
--3--3-3-3-3-3-3-5--3-3-3-3-3-3-|-----------------2h-3-----2h-5-------------|
--------------------------------|--0--0--0--0--0--------0--------3--2--0----|


                                                                             
-------------------------------------------|--------------------------------|
-------------------------------------------|--------------------------------|
-----------------2h-3-----2h-5-------------|--5--5-5-5-5-5-5-5--5-5-5-5-5-5-|
--0--0--0--0--0--------0--------3--2--0----|--------------------------------|


                                                                  
--------------------------------|--------------------------------|
--------------------------------|--------------------------------|
--3--3-3-3-3-3-3-3--3-3-3-3-3-3-|--5--5-5-5-5-5-5-5--5-5-5-5-5-5-|
--------------------------------|--------------------------------|


                                                                        
--------------------------------|--------------------------------------|
--------------------------------|--------------------------------------|
--3--3-3-3-3-3-3-3--3-3-3-3-3-3-|--------------------------------------|
--------------------------------|--0--0--0--0--0--0--0--0--0--0--0--0--|


                                                                   
---------------------------|--------------------------------------|
---------------------------|--------------------------------------|
---------------------------|--------------------------------------|
--1------------------------|--0--0--0--0--0--0--0--0--0--0--0--0--|


                                                                   
---------------------------|--------------------------------------|
---------------------------|--------------------------------------|
---------------------------|--------------------------------------|
--1------------------------|--0--0--0--0--0--0--0--0--0--0--0--0--|


                                                                   
---------------------------|--------------------------------------|
---------------------------|--------------------------------------|
---------------------------|--------------------------------------|
--1------------------------|--0--0--0--0--0--0--0--0--0--0--0--0--|


                                                          
-----------------------------|---------------------------|
-----------------------------|---------------------------|
-----------------------------|---------------------------|
--1----------3----------5----|------0--------------------|


                            
--------------------------||
--------------------------||
--------------------------||
--------------------------||





Comments


Popular Behemoth tabs & chords
Christians To The Lions Tabs
Heru Ra Ha Tabs
Inner Sanctum Tabs
Ov Fire And The Void Tabs
Ov Fire And The Void 2 Tabs
Pure Evil And Hate Tabs
Rome 64 Ce Tabs
Sculpting The Throne Ov Seth Tabs
The Alchemist's Dream Tabs
The Dance Of The Pagan Flames Tabs


Song lyrics



↑ Back to top | Tablatures and chords are parodies/interpretations of the original songs. You may use it for private study, scholarship, research or language learning purposes only
© 2014 AZChords.com Contact us | Privacy policy | DMCA | Add/correct tabs | Request tabs | Top 50 tabs