>
 >
Demigod 1

Demigod 1 Guitar Tabs

Behemoth - Demigod 1 chords, tabs, tablatures, lyrics

Guitar lessons | Add/correct | Request | Top 50 tabs Artists:  A B C D E F G H I J K L M N O P Q R S T U V W X Y Z 0-9

Demigod 1 Guitar Tabs – Behemoth

CD, Sheet music, Poster

Do you like Demigod 1? Share with your friends now
TabsTabs v2
[Part 1 (x4)]
|-------------------------------|-------------------------------|
|-------------------------------|-------------------------------|
|-------------------------------|-------------------------------|
|-------9===============--9-7-9-|-10========--9-7-6======-------|
|-------7===============--7-5-7-|-8=========--7-5-4======-------|
|-000000------------------------|------------------------666666-|
| ......                        |                               |
|-------------------------------|-------------------------------|
|-------------------------------|-------------------------------|
|-------------------------------|-------------------------------|
|-------------------------------|-------------------------------|
|-2222222--------2222222--------|-2222222--------2222222--------|
|-0000000--------0000000--------|-0000000--------0000000--------|
  .......        .......          .......        .......

[PART 1 (x4) /both gutiars/]

[Part 2 (x2)]
|----------------------------------------|-
|----------------------------------------|-
|--------------9-8-------------------8---|-
|-------9-9----7-6-10----10-9-7-9-10-6---|-
|-------7-7--------8-----8--7-5-7-8------|-
|-000000----000-------000----------------|-
  ......    ...       ...

-|----------------------------------------|
-|----------------------------------------|
-|--------------9-8-----------------------|
-|-------9-9----7-6-10----10-9-7-6--------|
-|-------7-7--------8--------------^------|
-|-000000----000-------0008--7-5-4-1~~~---|
   ......    ...       ...

[PART 1 (x4)] [PART 2 (x2)]

[Part 3a]
|-----------------------------|-----------------------------|-
|-----------------------------|-----------------------------|-
|-----------------------------|-----------------------------|-
|---------------10p7---9p6----|---------------10p7---9p6----|-
|-10p7---11p8-----------------|-10p7---11p8-----------------|-
|-----000----000----000---000-|-----000----000----000---000-|-
|     ...    ...    ...   ... |     ...    ...    ...   ... |
|-----------------------------|-----------------------------|-
|-----------------------------|-----------------------------|-
|---------------12p9--11p8----|---------------12p9---11p8---|-
|-12p9--13p10-----------------|-12p9--13p10-----------------|-
|-----------------------------|-----------------------------|-
|-----000----000----000---000-|-----000----000----000---000-|-
      ...    ...    ...   ...       ...    ...    ...   ...

-|-----------------------------|---------------------------------------|
-|-----------------------------|---------------------------------------|
-|-----------------------------|---------------------------------------|
-|---------------10p7---9p6----|---------------------------------------|
-|-10p7---11p8-----------------|-10p7-11p8-10p7-8p5-10p7-11p8-10p7-8p5-|
-|-----000----000----000---000-|---------------------------------------|
 |     ...    ...    ...   ... |                                       |
-|-----------------------------|---------------------------------------|
-|-----------------------------|---------------------------------------|
-|---------------12p9--11p8----|---------------------------------------|
-|-12p9--13p10-----------------|-12p9-13p1012p910p7-12p9-13p1012p910p7-|
-|-----------------------------|---------------------------------------|
-|-----000----000----000---000-|---------------------------------------|
       ...    ...    ...   ...

[Part 3b]
|-----------------------------|-----------------------------|-
|-----------------------------|-----------------------------|-
|-----------------------------|-----------------------------|-
|---------------10p7---9p6----|---------------10p7---9p6----|-
|-10p7---11p8-----------------|-10p7---11p8-----------------|-
|-----000----000----000---000-|-----000----000----000---000-|-
|     ...    ...    ...   ... |     ...    ...    ...   ... |
|-----------------------------|-----------------------------|-
|-----------------------------|-----------------------------|-
|-----------------------------|-----------------------------|-
|-----------------------------|-9============-10===========-|-
|-7==========================-|-----------------------------|-
|-0==========================-|-7============-8============-|-

-|-----------------------------|---------------------------------------|-
-|-----------------------------|---------------------------------------|-
-|-----------------------------|---------------------------------------|-
-|---------------10p7---9p6----|---------------------------------------|-
-|-10p7---11p8-----------------|-10p7-11p8-10p7-8p5-10p7-11p8-10p7-8p5-|-
-|-----000----000----000---000-|---------------------------------------|-
 |     ...    ...    ...   ... |                                       |
-|-----------------------------|---------------------------------------|-
-|-----------------------------|---------------------------------------|-
-|-----------------------------|---------------------------------------|-
-|-6==========================-|-9=================-10================-|-
-|-----------------------------|---------------------------------------|-
-|-4==========================-|-7=================-8=================-|-

-|-----------------------------|-----------------------------|-
-|-----------------------------|-----------------------------|-
-|-----------------------------|-----------------------------|-
-|---------------10p7---9p6----|---------------10p7---9p6----|-
-|-10p7---11p8-----------------|-10p7---11p8-----------------|-
-|-----000----000----000---000-|-----000----000----000---000-|-
 |     ...    ...    ...   ... |     ...    ...    ...   ... |
-|-----------------------------|-----------------------------|-
-|-----------------------------|-----------------------------|-
-|-----------------------------|-----------------------------|-
-|-----------------------------|-9============-10===========-|-
-|-7==========================-|-----------------------------|-
-|-0==========================-|-7============-8============-|-

-|-----------------------------|---------------------------------------|
-|-----------------------------|---------------------------------------|
-|-----------------------------|---------------------------------------|
-|---------------10p7---9p6----|---------------------------------------|
-|-10p7---11p8-----------------|-10p7-11p8-10p7-8p5-10p7-11p8-10p7-8p5-|
-|-----000----000----000---000-|---------------------------------------|
 |     ...    ...    ...   ... |                                       |
-|-----------------------------|---------------------------------------|
-|-----------------------------|---------------------------------------|
-|-----------------------------|---------------------------------------|
-|-13=========================-|-12================-^------------------|
-|-----------------------------|--------------------10~~~~~~~~~~~~~~~--|
-|-11=========================-|-10================--------------------|

[RIFF 3a (x2)] /first time as outro/ [RIFF 1 (x4)] [RIFF 2 (x2)]
[RIFF 3a (x2)] /first time as outro/ [RIFF 3b] /under solo/

[SOLO:]
|--------------------------------------------11-----------------|-
|------12--12--13--12=====-12--10--12---13---9----13---12======-|-
|-------9--9---10--9======-9----7--9----10--------10---9=======-|-
|---------------------------------------------------------------|-
|---------------------------------------------------------------|-
|-\____________________________play this bar x2_______________/-|-

-|-15======-14-15-14======-14-|-12---14---12---11---12------|-
-|-13======-12-13-12======-12-|-10---12---10---9----10---13-|-
-|----------------------------|--------------------------9--|-
-|----------------------------|-----------------------------|-
-|----------------------------|-----------------------------|-
-|----------------------------|-----------------------------|-

-|-11========--
-|--9========--
-|-------------
-|-------------
-|-------------
-|-------------

-|-----------------------------------------------------------------|
-|-t13/-12p10p9h10-t13/-12p10p9h10-t13/-12p10p9h10-t13/-12p10p9h10-|
-|-----------------------------------------------------------------|
-|-----------------------------------------------------------------|
-|-----------------------------------------------------------------|
-|-----------------------------------------------------------------|

[RIFF 2 (x2)]

Dziękuję :P





Comments


Popular Behemoth tabs & chords
As Above So Below Bass Tabs
Conquer All Bass Tabs
Escaping From Hell Bass Tabs
Christians To The Lions Tabs
Demigod Tabs
Horns Of Baphomet Tabs
Lucifer Intro 1 Tabs
Rome 64 Ce 1 Tabs
Slaves Shall Serve Tabs
Wolves Guard My Coffin Tabs


Song lyrics



↑ Back to top | Tablatures and chords are parodies/interpretations of the original songs. You may use it for private study, scholarship, research or language learning purposes only
© 2014 AZChords.com Contact us | Privacy policy | DMCA | Add/correct tabs | Request tabs | Top 50 tabs