» » »

Behemoth, Decade Of Therion Bass tabs (ver.1)

Artists:  A B C D E F G H I J K L M N O P Q R S T U V W X Y Z # 

Decade Of Therion Bass tabs (ver.1)

Behemoth Tabs
 Rating:
3.7/5 (6 votes)
Decade Of Therion lessons Tabs too difficult? Try these video lessons and learn fast
                
Band:  Behemoth

Copyright (c)  Avantgarde Music 2000
Version 1.0 - 25.12.2002



.  - palm mute
\  - slide down to
/  - slide up to
h  - hammer on


Tunning  2 1/2 Steps Down to "D G C F"

NOTE: I've adapted the Tab to the already posted guitar tab.
      So if you don't get it, look at the guitar tab.



 |---repeat-1x--|
F|----------------------------------------------------------|
C|----------------------------------------------------------|
G|----------------------------------------------------------|
D|--0--------------------------------------------0-1-3-1-3--|
						 . . . . .

F|----------------------------------------------------------|
C|----------------------------------------------------------|
G|----------------------------------------------------------|
D|--0-0-----------1-1--------------0-0-----------0-1-3-1-3--|
						 . . . . .


 |---repeat-2x--|
F|----------------------------------------------------------|
C|----------9-9-9---------10-10-10---------9-9-9------------|
G|------7-7-----------8-8--------------7-7------------------|
D|--0-0-----------0-0--------------0-0-----------0-1-3-1-3--|
						 . . . . .

F|----------------------------------------------------------|
C|----------9-9-9---------12-12-12---------9-9-9------------|
G|------7-7-----------8-8--------------7-7------------------|
D|--0-0-----------0-0--------------0-0-----------0-1-3-1-3--|
						 . . . . .



 |---repeat-1x--|
F|-------------------------------------------|
C|--------------------------------9----------|
G|----------10---9-7-----------------7-----7-|
D|---0--0-0----0-----0-0-0-0-0-0--------0----|


 |---repeat-1x--|
F|----------------------------------------------------------|
C|----------------------------------------------------------|
G|----------------------------------------------------------|
D|--0--------------------------------------------0-1-3-1-3--|
						 . . . . .

F|----------------------------------------------------------|
C|----------------------------------------------------------|
G|----------------------------------------------------------|
D|--0-------------1----------------0-------------0-1-3-1-3--|
						 . . . . .


 |---repeat-2x--|
F|----------------------------------------------------------|
C|----------9-9-9---------10-10-10---------9-9-9------------|
G|------7-7-----------8-8--------------7-7------------------|
D|--0-0-----------0-0--------------0-0-----------0-1-3-1-3--|
						 . . . . .

F|----------------------------------------------------------|
C|----------9-9-9---------12-12-12---------9-9-9------------|
G|------7-7-----------8-8--------------7-7------------------|
D|--0-0-----------0-0--------------0-0-----------0-1-3-1-3--|
						 . . . . .



 |---repeat-2x--|
F|-----------------------------------------------|
C|-----------------------------------------------|
G|---------------------------3-------------------|
D|--0--------------------------------------------|

F|-----------------------------------------------|
C|-----------------------------------------------|
G|---------------------------3-------------------|
D|--0-----------------------------------------1--|



 |---repeat-4x--|
F|--------------------------------------------------|
C|--------------------------------------------------|
G|--------------3-------------------------3---------|
D|--0-----------------------0--------------------1--|



 |---repeat-4x--|
F|-----------------------------------------------|
C|-----------------------------------------------|
G|---------------------------3-------------------|
D|--0--------------------------------------------|

F|-----------------------------------------------|
C|-----------------------------------------------|
G|---------------------------3-------------------|
D|--0-----------------------------------------1--|



 |---repeat-3x--|
F|---------------------------------------------------------|
C|---------------------------------------------------------|
G|-----------------------------7-7-7-7-7-------------------|
D|--0-0-0-0-0--------0-0-0-0-0------------------0-0-0-0-0--|


F|------------------------------------------------------|
C|------------------------------------------------------|
G|--8--8--8--8--8---------------------------------------|
D|-----------------------0-0-0-0-0-5--------8--------1--|


F|---------------------|---------------------|
C|---------------------|---------------------|
G|---------------------|---------------------|
D|--0-0------------1-1-|-0-0------------1-1--|
      .              .     .		  .

F|---------------------|---------------------|
C|---------------------|---------------------|
G|---------------------|---------------------|
D|--0-0------------1-1-|-----------1-1--0-0--|
      .              .               ......

F|---------------------------------------------------------|
C|---------------------------------------------------------|
G|---------------------------------------------------------|
D|--0-0-0-0-0--------0-0-0-0-0-0-0-0-0-0--------0-0-0-0-0--|


F|-------------------------------------------------------------------|
C|-------------------------------------------------------------------|
G|-------------------------------------------------------------------|
D|--0-0-0-0-0--------0-0-0-0-0-0-0-0-0-0------------------0-0-0-0-0--|



 |---repeat-1x--|
F|---------------------------------------------------------|
C|---------------------------------------------------------|
G|-----------------------------7-7-7-7-7-------------------|
D|--0-0-0-0-0--------0-0-0-0-0------------------0-0-0-0-0--|


F|-------------------------------------------------------|
C|-------------------------------------------------------|
G|---8--8--8--8--8---------------------------------------|
D|------------------------0-0-0-0-0-5--------8--------1--|


 |----Guitar Tapping (Bass and 2. Guitar enter after 1x)----|


 |---repeat-2x--|
F|------------------------------|
C|------------------------------|
G|---------------------------3--|
D|--0---------------------------|


F|-----------------------------------------------|
C|-----------------------------------------------|
G|---------------------------3-------------------|
D|--0-----------------------------------------1--|


F|-----------------------------------------------|
C|-----------------------------------------------|
G|--------------3-----------------------3--------|
D|--0-----------------------0-----------------1--|



 |---repeat-2x--|
F|----------------------------------------------------------|
C|----------9-9-9---------10-10-10---------9-9-9------------|
G|------7-7-----------8-8--------------7-7------------------|
D|--0-0-----------0-0--------------0-0-----------0-1-3-1-3--|
						 . . . . .

F|----------------------------------------------------------|
C|----------9-9-9---------12-12-12---------9-9-9------------|
G|------7-7-----------8-8--------------7-7------------------|
D|--0-0-----------0-0--------------0-0-----------0-1-3-1-3--|
						 . . . . .

 |----The End---|
            
Submit corrections

comments powered by Disqus
↑ Back to top | Behemoth Bass for Decade Of Therion. Lyrics for acoustic guitar and electric guitar. Tablatures and chords are parodies/interpretations of the original songs. You may use it for private study, scholarship, research or language learning purposes only