>
 >
Dark Forestcast Me Your Spell

Dark Forestcast Me Your Spell Guitar Tabs

Behemoth - Dark Forestcast Me Your Spell chords, tabs, tablatures, lyrics

Guitar lessons | Add/correct | Request | Top 50 tabs Artists:  A B C D E F G H I J K L M N O P Q R S T U V W X Y Z 0-9

Dark Forestcast Me Your Spell Guitar Tabs – Behemoth

CD, Sheet music, Poster

Do you like Dark Forestcast Me Your Spell? Share with your friends now
Tabs
e  |------------------------------------------------------------------|
B  |------------------------------------------------------------------|
G  |------------------------------------------------------------------|
D  |---------99--------991010--------9999-----------------------------|
A  |---------77--------778-8---------7777-10101010-6666---------------|
E  |-00000000--00000000------00000000-----8-8-8-8--4444---------------|




e  |------------------------------------------------------------------|
B  |------------------------------------------------------------------|
G  |------------------------------------------------------------------|
D  |----------9/10-6/8-33336666---------9/10-6/8-33332222-------------|
A  |----------7/8--4/6-11114444---------7/8--4/6-11110000-------------|
E  |--00000000------------------00000000------------------------------|




e  |------------------------------------------------------>
B  |------------------------------------------------------>
G  |----------9/10-6/8-33336666---------9/10-6/8-33332222->
D  |----------7/8--4/6-11114444---------7/8--4/6-11110000->
A  |--00000000------------------00000000------------------>
E  |------------------------------------------------------>
   end with..
   >|---------------------|
   >|---------------------|
   >|---------------------|
   >|-8--5--8--5----------|
   >|-6--3--6--3----------|
   >|---------------------|
e  |----------------------|-------------------|--------------------------|
B  |----------------------|-------------------|--------------------------|
G  |----------------------|-------------------|--------------------------|
D  |----10------9--12--15-|-----10-----9--8-12|----10------9--12--15-8-12|
A  |----8-------7--10--13-|-----8------7--6-10|----8-------7--10--13-6-10|
E  |0000---0000-----------|0000----0000-------|0000---0000---------------|

ACUSTIC.. (i think it goes like this)

e  |--------------------------------------------------------------|
B  |---5----5---5---5---6-6-6h9p8p6-----6-6-6h9p8p6---------------|
G  |---4----4---4---4---5---------------5-------------------------|
D  |-2--2-2---2---2-----3---------------3-------------------------|
A  |-2--2-2---2---2-----------------------------------------------|
E  |-0--0-0---0---0-----------------------------------------------|

acustic guitar when drums and dist guitar begin..

e  |----------------------------------------------------------------->
B  |-10-10-10h13p12p10--6-6-6h9p8p6---10-10-10h13p12p10--5-5-5h8p7p5->
G  |-9------------------5-------------9------------------4----------->
D  |-7------------------3-------------7------------------2----------->
A  |----------------------------------------------------------------->
E  |----------------------------------------------------------------->

e  >-----------------------------------------------------------------|
B  >--6-6-6h9p8p6--5-5-5-5-5-5-ecc-----------------------------------|
G  >--5------------4-4-4-4-4-4-ecc-----------------------------------|
D  >--3------------2-2-2-2-2-2-ecc-----------------------------------|
A  >-----------------------------------------------------------------|
E  >-----------------------------------------------------------------|

dist guitar when acustic guit plays

e  |-------------------------------------------->
B  |-------------------------------------------->
G  |-------------------------------------------->
D  |--14-14-14-14-10101010--14-14-14-14-9-9-9-9->
A  |--12-12-12-12-8-8-8-8---12-12-12-12-7-7-7-7->
E  |-------------------------------------------->
   >--------------------------------|
   >--------------------------------|
   >--------------------------------|
   >-14-14-14-14-10101010-9-9-9-9---|
   >-12-12-12-12-8-8-8-8--7-7-7-7---|
   >--------------------------------|
then

e  |-------------------------------|----------------------------------|
B  |-------------------------------|----------------------------------|
G  |-------------------------------|----------------------------------|
D  |--8/10101010-13-13-13-13-13-9-9|8/10-10-10-10-13-13-13-13-13-14-14|
A  |2-6/8-8-8-8--11-11-11-11-11-7-7|6/8--8--8--8--11-11-11-11-11-12-12|
E  |0------------------------------|----------------------------------|

ends with..

e  |--------------------------------------------------------------|
B  |--------------------------------------------------------------|
G  |--------------------------------------------------------------|
D  |--------------------------------------------------------------|
A  |-2------------------------------------------------------------|
E  |-0------------------------------------------------------------|





Comments


Popular Behemoth tabs & chords
Fields Of Haar - Meggido Bass Tabs
Prometherion Bass Tabs
At The Left Hand Ov God Tabs
Chant For Eschaton 2000 Tabs
Horns Of Baphomet Tabs
Lam Tabs
Lucifer Intro 1 Tabs
Prometherion Tabs
Sculpting The Throne Ov Seth Intro Tabs
Summoning Of The Ancient Ones Tabs


Song lyrics



↑ Back to top | Tablatures and chords are parodies/interpretations of the original songs. You may use it for private study, scholarship, research or language learning purposes only
© 2014 AZChords.com Contact us | Privacy policy | DMCA | Add/correct tabs | Request tabs | Top 50 tabs