» » »

Behemoth, Conquer All Bass tabs (ver.1)

Artists:  A B C D E F G H I J K L M N O P Q R S T U V W X Y Z # 

Conquer All Bass tabs (ver.1)

Behemoth Tabs
Rating:
5/5 (2 votes)
Conquer All lessons Tabs too difficult? Try these video lessons and learn fast
                                          Behemoth - Conquer All


E |------------------------|
C |------------------------|
F |------------------------|
C |---1-0------------1-0---|   


E |--------------------------| |-------------------------------|
C |--------------------------| |-------------------------------|
F |------------5-5-7-7-8-8---| |-------------------------------|
C |---1-0--------------------| |---1-0-------000-111-444-111---|

E |---------------------------| |-------------------------------|
C |---------------------------| |-------------------------------|
F |------------5-5-7-7-8-11---| |-------------------------------|
C |---1-0---------------------| |---1-0-------000-111-444-111---|

 ____________________________________________________
 | E |--------------------------------------------| |
 | C |--------------------------------------------| |
 | F |---8-7-------8-7-5-7-8-7--------------------| |  
 | C |--------000---------------000-111-444-111---| |   
 |                                                  |     X 2  
 | E |--------------------------------------------| |     
 | C |--------------------------------------------| | 
 | F |---8-7-------8-7-5-7-5-4--------------------| |
 | C |--------000---------------000-111-444-111---| |
 ____________________________________________________


E |-------------------------------|
C |-------------------------------|
F |-------------------2-----------|   X3
C |---0---0-2-4-0-2-4-----4-3-4---|

E |-----------------------------------------|
C |-----------------------------------------|
F |---------------------2-1---2-1---0-------|   X4
C |---3-2-0-3-2-0-3-2-0-----0-----0---3-2---|


E |--------------------------------------|
C |--------------------------------------|
F |--------------------------------------|   X4
C |---1-0------000-000-111-444-111-111---|

E |---------------------------------------------------|
C |---------------------------------------------------|
F |-----10-9----9--------------13-12-10-12-10-9-------|
C |---0------11---11-10-11---0-------------------11---|

E |-------------------------------------------------|
C |-------------------------------------------------|
F |-----10-9----9--------------13-12-10-12-10-9b----|
C |---0------11---11-10-11---0----------------------|

E |---------------------------------------------------|
C |---------------------------------------------------|
F |-----10-9----9--------------13-12-10-12-10-9-------|
C |---0------11---11-10-11---0-------------------11---|

E |-----------------------------------------------|
C |-----------------------------------------------|
F |-----10-9----9---------------------------------|
C |---0------11---11-10-11-13-11-10-11-8--10--7---|

 ____________________________________________________
 | E |--------------------------------------------| |
 | C |--------------------------------------------| |
 | F |---8-7-------8-7-5-7-8-7--------------------| |  
 | C |--------000---------------000-111-444-111---| |   
 |                                                  |     X 2  
 | E |--------------------------------------------| |     
 | C |--------------------------------------------| | 
 | F |---8-7-------8-7-5-7-5-4--------------------| |
 | C |--------000---------------000-111-444-111---| |
 ____________________________________________________

E |-------------------------------|
C |-------------------------------|
F |-------------------2-----------|   X3
C |---0---0-2-4-0-2-4-----4-3-4---|

E |-----------------------------------------|
C |-----------------------------------------|
F |---------------------2-1---2-1---0-------|   X4
C |---3-2-0-3-2-0-3-2-0-----0-----0---3-2---|

E |-------------------------------|
C |-------------------------------|
F |-------7--3-2---0-2-3----0-----|   X3
C |---0-0-0------3--------3-------|

E |--------------------------|
C |--------------------------|
F |-------7--------3-----5---|
C |---0-0-0------------------|

E |-----------------------------------------------------|
C |-----------------------------------------------------|
F |---333333333333--------------------------------------|   X3   
C |----------------444444444444-000000000000-0-0-00-0---|

E |----------------------------------|
C |----------------------------------|
F |--------------3---------------7---|    X4
C |---00-0-0-00-0-----44-4-4-44-4----|

E |---------------------------|
C |---------------------------|
F |---------------------------|   X4
C |---000-0-0-00-00-0---------|
            
Submit corrections

comments powered by Disqus
↑ Back to top | Behemoth Bass for Conquer All. Lyrics for acoustic guitar and electric guitar. Tablatures and chords are parodies/interpretations of the original songs. You may use it for private study, scholarship, research or language learning purposes only