>
 >
As Above So Below

As Above So Below Guitar Tabs

Behemoth - As Above So Below chords, tabs, tablatures, lyrics

Guitar lessons | Add/correct | Request | Top 50 tabs Artists:  A B C D E F G H I J K L M N O P Q R S T U V W X Y Z 0-9

As Above So Below Guitar Tabs – Behemoth

CD, Sheet music, Poster

Do you like As Above So Below? Share with your friends now
Bass TabsBass Tabs v2Tabs
                      AS ABOVE SO BELOW
                             As recorded by Behemoth
             (From the 2002 Album ZOS KIA CULTUS (HERE AND BEYOND))

Tablature Legend
----------------
 h   - hammer-on
 p   - pull-off
 b   - bend
 pb  - pre-bend
 r   - bend release (if no number after the r, then release immediately)
 /\  - slide into or out of (from/to "nowhere")
 s   - legato slide
 S   - shift slide
  - natural harmonic
[n]  - artificial harmonic
n(n) - tapped harmonic
 ~   - vibrato
 tr  - trill
 T   - tap
 TP  - trem. picking
 PM  - palm muting
\n/  - tremolo bar dip; n = amount to dip
 \n  - tremolo bar down
 n/  - tremolo bar up
/n\  - tremolo bar inverted dip
 =   - hold bend; also acts as connecting device for hammers/pulls
 <>  - volume swell (louder/softer)
 x   - on rhythm slash represents muted slash
 o   - on rhythm slash represents single note slash


   Intro
    Q=192
    N.C.
   4/4
    Gtrs I, II
||--------------------|-----------------|
||--------------------|-----------------|
||o-------------------|-----------------|
||--------------------|-----------------|
||o-------------------|-----------------|
||--------------------|-----------------|
||--0-0-0-----0-0-0-0-|-0----0-0-0-0-0--|


|-------------------|---------------------||
|-------------------|---------------------||
|-------------------|--------------------o||
|-------------------|---------------------||
|-------------------|--------------------o||
|-------------------|---------------------||
|-0-0-0-----0-0-0-0-|-0----0-0-0-0-0------||


   Riff 1
    N.C.
    Gtr I
||----------------------------------|---------------------------------|
||----------------------------------|---------------------------------|
||o---------------------------------|---------------------------------|
||----------------------------------|---------------------------------|
||o---------------------------------|---------------------------------|
||----------2-2-2-2-0-0-0-0---------|---------------------------------|
||--0-0-0-0-----------------1-1-1-1-|-1-1-1-1-1-1-1-1-4-4-4-4-4-4-4-4-|
|
|   Gtr II
||----------------------------------|---------------------------------|
||----------------------------------|---------------------------------|
||o---------------------------------|---------------------------------|
||----------------------------------|---------------------------------|
||o---------------------------------|---------------------------------|
||----------------------------------|---------------------------------|
||--0-0-0-------------------1-1-1-1-|-1---------------4-4-4-4-4-------|


|---------------------------------|------------------------------------|
|---------------------------------|------------------------------------|
|---------------------------------|------------------------------------|
|---------------------------------|------------------------------------|
|---------------------------------|------------------------------------|
|---------2-2-2-2-0-0-0-0---------|------------------------------------|
|-0-0-0-0-----------------1-1-1-1-|-1-1-1-1-1-1-1-1-1-1-1-1-1-1-1-1----|
|
|---------------------------------|------------------------------------|
|---------------------------------|------------------------------------|
|---------------------------------|------------------------------------|
|---------------------------------|------------------------------------|
|---------------------------------|------------------------------------|
|---------------------------------|------------------------------------|
|-0-0-0-------------------1-1-1-1-|-1---------------1-1-1-1-1----------|


|---------------------------------|---------------------------------|
|---------------------------------|---------------------------------|
|---------------------------------|---------------------------------|
|---------------------------------|---------------------------------|
|---------------------------------|---------------------------------|
|---------2-2-2-2-0-0-0-0---------|---------------------------------|
|-0-0-0-0-----------------1-1-1-1-|-1-1-1-1-1-1-1-1-4-4-4-4-4-4-4-4-|
|
|---------------------------------|---------------------------------|
|---------------------------------|---------------------------------|
|---------------------------------|---------------------------------|
|---------------------------------|---------------------------------|
|---------------------------------|---------------------------------|
|---------------------------------|---------------------------------|
|-0-0-0-------------------1-1-1-1-|-1---------------4-4-4-4-4-------|


|-------------------|---------------------||
|-------------------|---------------------||
|-------------------|--------------------o||
|-------------------|---------------------||
|-------------------|--------------------o||
|-------------------|---------------------||
|-0-0-0-----0-0-0-0-|-0----0-0-0-0-0------||
|
|-------------------|---------------------||
|-------------------|---------------------||
|-------------------|--------------------o||
|-------------------|---------------------||
|-------------------|--------------------o||
|-------------------|---------------------||
|-0-0-0-----0-0-0-0-|-0----0-0-0-0-0------||


   Main Riff
    N.C.
||----------------------------------|---------------------------------|
||----------------------------------|---------------------------------|
||o---------------------------------|---------------------------------|
||----------------------------------|---------------------------------|
||o---------------------------------|---------------------------------|
||----------2-2-2-2-0-0-0-0---------|---------------------------------|
||--0-0-0-0-----------------1-1-1-1-|-1-1-1-1-1-1-1-1-4-4-4-4-4-4-4-4-|
|
||----------------------------------|---------------------------------|
||----------------------------------|---------------------------------|
||o---------------------------------|---------------------------------|
||----------------------------------|---------------------------------|
||o---------------------------------|---------------------------------|
||----------2-2-2-2-0-0-0-0---------|---------------------------------|
||--0-0-0-0-----------------1-1-1-1-|-1-1-1-1-1-1-1-1-4-4-4-4-4-4-4-4-|


|---------------------------------|------------------------------------|
|---------------------------------|------------------------------------|
|---------------------------------|------------------------------------|
|---------------------------------|------------------------------------|
|---------------------------------|------------------------------------|
|---------2-2-2-2-0-0-0-0---------|------------------------------------|
|-0-0-0-0-----------------1-1-1-1-|-1-1-1-1-1-1-1-1-1-1-1-1-1-1-1-1----|
|
|---------------------------------|------------------------------------|
|---------------------------------|------------------------------------|
|---------------------------------|------------------------------------|
|---------------------------------|------------------------------------|
|---------------------------------|------------------------------------|
|---------2-2-2-2-0-0-0-0-3-3-3-3-|-3-3-3-3-3-3-3-3-3-3-3-3-3-3-3-3----|
|-0-0-0-0-------------------------|------------------------------------|


  Gtrs I, II
|---------------------------------|
|---------------------------------|
|---------------------------------|
|---------------------------------|
|---------------------------------|
|---------2-2-2-2-0-0-0-0---------|
|-0-0-0-0-----------------1-1-1-1-|


                                    B5
|---------------------------------|-------------|-----------------||
|---------------------------------|-------------|-----------------||
|---------------------------------|-------------|----------------o||
|---------------------------------|-------------|-----------------||
|---------------------------------|-------------|----------------o||
|---------------------------------|-2-2-----2-2-|-2----2-2-2------||
|-1-1-1-1-1-1-1-1-4-4-4-4-4-4-4-4-|-0-0-----0-0-|-0----0-0-0------||


   Bridge
    N.C.
    Gtr I
||------------|---------------|-----------|----------------|
||------------|---------------|-----------|----------------|
||o-----------|---------------|-----------|----------------|
||------------|---------------|-----------|----------------|
||o-----------|---------------|-----------|----------------|
||------------|---------------|-----------|----------------|
||--0------1--|-(1)--4--4--1--|-0------1--|-(1)--4--4--1---|
|
|   Gtr II
||------------|---------------|-----------|----------------|
||------------|---------------|-----------|----------------|
||o-----------|---------------|-----------|----------------|
||--9---------|-(9)-----9--7--|-----------|----------------|
||o-----------|---------------|-9------7--|-(7)--3--6--3---|
||--7---------|-(7)-----7--5--|-----------|----------------|
||------------|---------------|-7------5--|-(5)--1--4--1---|


|-----------|---------------|------------|----------------||
|-----------|---------------|------------|----------------||
|-----------|---------------|------------|---------------o||
|-----------|---------------|------------|----------------||
|-----------|---------------|------------|---------------o||
|-----------|---------------|------------|----------------||
|-0------1--|-(1)--4--4--1--|-0-------1--|-(1)--4--4--1---||
|
|-----------|---------------|------------|----------------||
|-----------|---------------|------------|----------------||
|-----------|------------7--|-7----------|---------------o||
|-9---------|-(9)-----9-----|------7-----|----------------||
|-----------|------------5--|-5----------|-10---6--9--6--o||
|-7---------|-(7)-----7-----|------5-----|----------------||
|-----------|---------------|------------|--8---4--7--4---||


   I have seen faces on....
    N.C.
||----------------------------------|---------------------------------|
||----------------------------------|---------------------------------|
||o---------------------------------|---------------------------------|
||----------------------------------|---------------------------------|
||o---------------------------------|---------------------------------|
||----------2-2-2-2-0-0-0-0---------|---------------------------------|
||--0-0-0-0-----------------1-1-1-1-|-1-1-1-1-1-1-1-1-4-4-4-4-4-4-4-4-|
|
||----------------------------------|---------------------------------|
||----------------------------------|---------------------------------|
||o---------------------------------|---------------------------------|
||----------------------------------|---------------------------------|
||o---------------------------------|---------------------------------|
||----------------------------------|---------------------------------|
||--0-0-0-------------------1-1-1-1-|-1---------------4-4-4-4-4-------|


|---------------------------------|------------------------------------|
|---------------------------------|------------------------------------|
|---------------------------------|------------------------------------|
|---------------------------------|------------------------------------|
|---------------------------------|------------------------------------|
|---------2-2-2-2-0-0-0-0---------|------------------------------------|
|-0-0-0-0-----------------1-1-1-1-|-1-1-1-1-1-1-1-1-1-1-1-1-1-1-1-1----|
|
|---------------------------------|------------------------------------|
|---------------------------------|------------------------------------|
|---------------------------------|------------------------------------|
|---------------------------------|------------------------------------|
|---------------------------------|------------------------------------|
|---------------------------------|------------------------------------|
|-0-0-0-------------------1-1-1-1-|-1---------------1-1-1-1-1----------|


|---------------------------------|---------------------------------|
|---------------------------------|---------------------------------|
|---------------------------------|---------------------------------|
|---------------------------------|---------------------------------|
|---------------------------------|---------------------------------|
|---------2-2-2-2-0-0-0-0---------|---------------------------------|
|-0-0-0-0-----------------1-1-1-1-|-1-1-1-1-1-1-1-1-4-4-4-4-4-4-4-4-|
|
|---------------------------------|---------------------------------|
|---------------------------------|---------------------------------|
|---------------------------------|---------------------------------|
|---------------------------------|---------------------------------|
|---------------------------------|---------------------------------|
|---------------------------------|---------------------------------|
|-0-0-0-------------------1-1-1-1-|-1---------------4-4-4-4-4-------|


|-------------------|---------------------||
|-------------------|---------------------||
|-------------------|--------------------o||
|-------------------|---------------------||
|-------------------|--------------------o||
|-------------------|---------------------||
|-0-0-0-----0-0-0-0-|-0----0-0-0-0-0------||
|
|-------------------|---------------------||
|-------------------|---------------------||
|-------------------|--------------------o||
|-------------------|---------------------||
|-------------------|--------------------o||
|-------------------|---------------------||
|-0-0-0-----0-0-0-0-|-0----0-0-0-0-0------||


 Art thou Nephilim child....
  N.C.
|---------------------------------|---------------------------------|
|---------------------------------|---------------------------------|
|---------------------------------|---------------------------------|
|---------------------------------|---------------------------------|
|---------------------------------|---------------------------------|
|---------2-2-2-2-0-0-0-0---------|---------------------------------|
|-0-0-0-0-----------------1-1-1-1-|-1-1-1-1-1-1-1-1-4-4-4-4-4-4-4-4-|
|
|---------------------------------|---------------------------------|
|---------------------------------|---------------------------------|
|---------------------------------|---------------------------------|
|---------------------------------|---------------------------------|
|---------------------------------|---------------------------------|
|---------2-2-2-2-0-0-0-0---------|---------------------------------|
|-0-0-0-0-----------------1-1-1-1-|-1-1-1-1-1-1-1-1-4-4-4-4-4-4-4-4-|


|---------------------------------|------------------------------------|
|---------------------------------|------------------------------------|
|---------------------------------|------------------------------------|
|---------------------------------|------------------------------------|
|---------------------------------|------------------------------------|
|---------2-2-2-2-0-0-0-0---------|------------------------------------|
|-0-0-0-0-----------------1-1-1-1-|-1-1-1-1-1-1-1-1-1-1-1-1-1-1-1-1----|
|
|---------------------------------|------------------------------------|
|---------------------------------|------------------------------------|
|---------------------------------|------------------------------------|
|---------------------------------|------------------------------------|
|---------------------------------|------------------------------------|
|---------2-2-2-2-0-0-0-0-3-3-3-3-|-3-3-3-3-3-3-3-3-3-3-3-3-3-3-3-3----|
|-0-0-0-0-------------------------|------------------------------------|


  Gtrs I, II
|---------------------------------|
|---------------------------------|
|---------------------------------|
|---------------------------------|
|---------------------------------|
|---------2-2-2-2-0-0-0-0---------|
|-0-0-0-0-----------------1-1-1-1-|


                                    B5
|---------------------------------|-------------|----------------|
|---------------------------------|-------------|----------------|
|---------------------------------|-------------|----------------|
|---------------------------------|-------------|----------------|
|---------------------------------|-------------|----------------|
|---------------------------------|-2-2-----2-2-|-2----2-2-2-----|
|-1-1-1-1-1-1-1-1-4-4-4-4-4-4-4-4-|-0-0-----0-0-|-0----0-0-0-----|


  N.C.
  Gtr I
|---------------------------------|---------------------------------|
|---------------------------------|---------------------------------|
|---------------------------------|---------------------------------|
|---------------------------------|---------------------------------|
|---------------------------------|---------------------------------|
|---------2-2-2-2-0-0-0-0---------|---------------------------------|
|-0-0-0-0-----------------1-1-1-1-|-1-1-1-1-1-1-1-1-4-4-4-4-4-4-4-4-|
|
| Gtr II
|---------------------------------|---------------------------------|
|---------------------------------|---------------------------------|
|---------------------------------|---------------------------------|
|---------------------------------|---------------------------------|
|---------------------------------|---------------------------------|
|---------2-2-2-2-0-0-0-0---------|---------------------------------|
|-0-0-0-0-----------------1-1-1-1-|-1-1-1-1-1-1-1-1-4-4-4-4-4-4-4-4-|


|---------------------------------|------------------------------------|
|---------------------------------|------------------------------------|
|---------------------------------|------------------------------------|
|---------------------------------|------------------------------------|
|---------------------------------|------------------------------------|
|---------2-2-2-2-0-0-0-0---------|------------------------------------|
|-0-0-0-0-----------------1-1-1-1-|-1-1-1-1-1-1-1-1-1-1-1-1-1-1-1-1----|
|
|---------------------------------|------------------------------------|
|---------------------------------|------------------------------------|
|---------------------------------|------------------------------------|
|---------------------------------|------------------------------------|
|---------------------------------|------------------------------------|
|---------2-2-2-2-0-0-0-0-3-3-3-3-|-3-3-3-3-3-3-3-3-3-3-3-3-3-3-3-3----|
|-0-0-0-0-------------------------|------------------------------------|


  Gtrs I, II
|---------------------------------|---------------------------------|
|---------------------------------|---------------------------------|
|---------------------------------|---------------------------------|
|---------------------------------|---------------------------------|
|---------------------------------|---------------------------------|
|---------2-2-2-2-0-0-0-0---------|---------------------------------|
|-0-0-0-0-----------------1-1-1-1-|-1-1-1-1-1-1-1-1-4-4-4-4-4-4-4-4-|


 Solo
  N.C.
|----------------------|-------------------|
|----------------------|-------------------|
|----------------------|-------------------|
|----------------------|-------------------|
|----------------------|-------------------|
|----------------------|-------------------|
|--0--4--3---1-0-3-0-4-|--0--4-3-1-3-4-3-1-|
|
| Gtr III
|        \5_________________________________
|----------------------|-------------------|
|----------------------|-------------------|
|-[9]---(9)------------|-(9)---------------|
|----------------------|-------------------|
|----------------------|-------------------|
|----------------------|-------------------|
|----------------------|-------------------|


|--------------------|------------------|
|--------------------|------------------|
|--------------------|------------------|
|--------------------|------------------|
|--------------------|------------------|
|--------------------|------------------|
|-0----4-3-1-0-3-0-4-|--0-4-3-1-3-4-3-1-|
|
| |                     |
|--------------------|-12---------------|
|-9b12---------------|------------------|
|--------------------|------------------|
|--------------------|------------------|
|--------------------|------------------|
|--------------------|------------------|
|--------------------|------------------|


|---------------------------------------------|
|---------------------------------------------|
|---------------------------------------------|
|---------------------------------------------|
|---------------------------------------------|
|---------------------------------------------|
|--0----4-----3----1-----0----3-----0----4----|
|
|     T          T          T          T
|-14-20---17p14-20---17p14-20---17p14-21---17-|
|---------------------------------------------|
|---------------------------------------------|
|---------------------------------------------|
|---------------------------------------------|
|---------------------------------------------|
|---------------------------------------------|


|---------------------------------------------|----------------------|--------------------|
|---------------------------------------------|----------------------|--------------------|
|---------------------------------------------|----------------------|--------------------|
|---------------------------------------------|----------------------|--------------------|
|---------------------------------------------|----------------------|--------------------|
|---------------------------------------------|----------------------|--------------------|
|--0----4-----3----1-----3----4-----3----1----|--0-4--3--1--0--3-0-4-|-0-4-3-1-3-4-3-1----|
|
|                                                     \5
|     T          T          T          T
|-14-20---17p14-20---17p14-20---17p14-21---17p|=14-------------------|--------------------|
|---------------------------------------------|----------------------|--------------------|
|---------------------------------------------|----9-(9)---(9)-------|-9------------------|
|---------------------------------------------|----------------------|--------------------|
|---------------------------------------------|----------------------|--------------------|
|---------------------------------------------|----------------------|--------------------|
|---------------------------------------------|----------------------|--------------------|


 Sometims love...
  B5
 3/4
|----------|-----------|----------|-------------|
|----------|-----------|----------|-------------|
|----------|-----------|----------|-------------|
|----------|-----------|----------|-------------|
|------/9--|-(9)-------|----------|-------------|
|-2--------|-----------|----------|-------------|
|-0----/7--|-(7)----4--|-6--4--1--|-(1)--[4]----|


  N.C.
 4/4
|-----------------|-----------------|-----------------|-----------------|
|-----------------|-----------------|-----------------|-----------------|
|-----------------|-----------------|-----------------|-----------------|
|-----------------|-----------------|-----------------|-----------------|
|-----------------|-----------------|-----------------|-----------------|
|-----------------|-----------------|-----------------|-----------------|
|-0-4-3-1-0-3-0-4-|-0-4-3-1-3-4-3-1-|-0-4-3-1-0-3-0-4-|-0-4-3-1-3-4-3-1-|


  B5
 3/4
|----------|-----------|----------|-------------|
|----------|-----------|----------|-------------|
|----------|-----------|----------|-------------|
|----------|-----------|----------|-------------|
|------/9--|-(9)-------|----------|-------------|
|-2--------|-----------|----------|-------------|
|-0----/7--|-(7)----4--|-6--4--1--|-(1)--[4]----|


  N.C.
 4/4
|-----------------|-----------------|-----------------|-----------------|
|-----------------|-----------------|-----------------|-----------------|
|-----------------|-----------------|-----------------|-----------------|
|-----------------|-----------------|-----------------|-----------------|
|-----------------|-----------------|-----------------|-----------------|
|-----------------|-----------------|-----------------|-----------------|
|-0-4-3-1-0-3-0-4-|-0-4-3-1-3-4-3-1-|-0-4-3-1-0-3-0-4-|-0-4-3-1-3-4-3-1-|


  N.C.
  Gtr I
|-----------------|-------------------|-----------------|-------------------|
|-----------------|-------------------|-----------------|-------------------|
|-----------------|-------------------|-----------------|-------------------|
|-----------------|-------------------|-----------------|-------------------|
|-9---------------|-(9)---------------|-9---------------|-(9)---------------|
|-----------------|-------------------|-----------------|-------------------|
|-7---------------|-(7)---------------|-7---------------|-(7)---------------|
|
| Gtr II
|-----------------|-------------------|-----------------|-------------------|
|-----------------|-------------------|-----------------|-------------------|
|-----------------|-------------------|-----------------|-------------------|
|-----------------|-------------------|-----------------|-------------------|
|-----------------|-------------------|-----------------|-------------------|
|-----------------|-------------------|-----------------|-------------------|
|-0-4-3-1-0-3-0-4-|--0--4-3-1-3-4-3-1-|-0-4-3-1-0-3-0-4-|--0--4-3-1-3-4-3-1-|


|-----------------|-------------------|
|-----------------|-------------------|
|-----------------|-------------------|
|-9---------------|-(9)---------------|
|-----------------|-------------------|
|-7---------------|-(7)---------------|
|-----------------|-------------------|
|
|-----------------|-------------------|
|-----------------|-------------------|
|-----------------|-------------------|
|-----------------|-------------------|
|-----------------|-------------------|
|-----------------|-------------------|
|-0-4-3-1-0-3-0-4-|--0--4-3-1-3-4-3-1-|


|-----------------|-----------------------|
|-----------------|-----------------------|
|-----------------|-----------------------|
|-8---------------|-(8)-------------------|
|-----------------|-----------------------|
|-6---------------|-(6)-------[6]b7r======|
|-----------------|-----------------------|
|
|-----------------|-----------------------|
|-----------------|-----------------------|
|-----------------|-----------------------|
|-----------------|-----------------------|
|-----------------|-----------------------|
|-----------------|-----------------------|
|-0-4-3-1-0-3-0-4-|--0--4-3-1--3----4-3-1-|


|-----------------|-------------------|-----------------|-------------------|
|-----------------|-------------------|-----------------|-------------------|
|-----------------|-------------------|-----------------|-------------------|
|-----------------|-------------------|-----------------|-------------------|
|-----------------|-------------------|-9---------------|-(9)---------------|
|-----------------|-------------------|-----------------|-------------------|
|-0-0-0-0-0---0-0-|-(0)-0---0-0-0-0-0-|-7---------------|-(7)---------------|
|
|-----------------|-------------------|-----------------|-------------------|
|-----------------|-------------------|-----------------|-------------------|
|-----------------|-------------------|-----------------|-------------------|
|-----------------|-------------------|-----------------|-------------------|
|-----------------|-------------------|-----------------|-------------------|
|-----------------|-------------------|-----------------|-------------------|
|-0-4-3-1-0-3-0-4-|--0--4-3-1-3-4-3-1-|-0-4-3-1-0-3-0-4-|--0--4-3-1-3-4-3-1-|


|-----------------|-------------------|-----------------|---------------------|
|-----------------|-------------------|-----------------|---------------------|
|-----------------|-------------------|-----------------|---------------------|
|-9---------------|-(9)---------------|-8---------------|-(8)-----------------|
|-----------------|-------------------|-----------------|---------------------|
|-7---------------|-(7)---------------|-6---------------|-(6)-------[6]-------|
|-----------------|-------------------|-----------------|---------------------|
|
|-----------------|-------------------|-----------------|---------------------|
|-----------------|-------------------|-----------------|---------------------|
|-----------------|-------------------|-----------------|---------------------|
|-----------------|-------------------|-----------------|---------------------|
|-----------------|-------------------|-----------------|---------------------|
|-----------------|-------------------|-----------------|---------------------|
|-0-4-3-1-0-3-0-4-|--0--4-3-1-3-4-3-1-|-0-4-3-1-0-3-0-4-|--0--4-3-1--3--4-3-1-|


   Break
    N.C.
    Gtrs I, II
                                                         ~~~
||-----------------|------------------|---------------|--------|
||-----------------|------------------|---------------|--------|
||o----------------|------------------|---------------|--------|
||-----------------|------------------|---------------|--------|
||o----------------|------------------|-6--5--3--[5]--|-(5)----|
||-----------------|------------------|---------------|--------|
||--0-0-0-0-0--0-0-|-(0)-0--0-0-0-0-0-|---------------|--------|


                                                    ~~~~~~~~~~
                                                                  4x
|----------------|------------------|-------------------|---------||
|----------------|------------------|-------------------|---------||
|----------------|------------------|-------------------|--------o||
|----------------|------------------|-------------------|---------||
|----------------|------------------|-------------------|--------o||
|----------------|------------------|-/7--6h7p6-4--[3]--|-(3)-----||
|-0-0-0-0-0--0-0-|-(0)-0--0-0-0-0-0-|-------------------|---------||


   You taught me...
    N.C.
||------------------|------------------||-----------------|------------------|
||------------------|------------------||-----------------|------------------|
||o-----------------|-----------------o||-----------------|------------------|
||------------------|------------------||-----------------|------------------|
||o-----------------|-----------------o||-----------------|------------------|
||------------------|------------------||-----------------|------------------|
||--0-4-3-1-0-3-0-4-|-0-4-3-1-3-4-3-1--||-0-4-3-1-0-3-0-4-|-0-4-3-1-3-4-3-1--|


   IAO! SABAO!
    B5
||--------------|-------------|-------------|---------------||
||--------------|-------------|-------------|---------------||
||o-------------|-------------|-------------|--------------o||
||--------------|-------------|-------------|---------------||
||o-------------|-------------|-------------|--------------o||
||--2-2-----2-2-|-2----2-2-2--|-2-2-----2-2-|-2----2-2-2----||
||--0-0-----0-0-|-0----0-0-0--|-0-0-----0-0-|-0----0-0-0----||


   Why, why...
    N.C.
    Gtr I
||----------------------------------|---------------------------------|
||----------------------------------|---------------------------------|
||o---------------------------------|---------------------------------|
||----------------------------------|---------------------------------|
||o---------------------------------|---------------------------------|
||----------2-2-2-2-0-0-0-0---------|---------------------------------|
||--0-0-0-0-----------------1-1-1-1-|-1-1-1-1-1-1-1-1-4-4-4-4-4-4-4-4-|
|
|   Gtr II
||----------------------------------|---------------------------------|
||----------------------------------|---------------------------------|
||o---------------------------------|---------------------------------|
||----------------------------------|---------------------------------|
||o---------------------------------|---------------------------------|
||----------------------------------|---------------------------------|
||--0-0-0-------------------1-1-1-1-|-1---------------4-4-4-4-4-------|


|---------------------------------|------------------------------------|
|---------------------------------|------------------------------------|
|---------------------------------|------------------------------------|
|---------------------------------|------------------------------------|
|---------------------------------|------------------------------------|
|---------2-2-2-2-0-0-0-0---------|------------------------------------|
|-0-0-0-0-----------------1-1-1-1-|-1-1-1-1-1-1-1-1-1-1-1-1-1-1-1-1----|
|
|---------------------------------|------------------------------------|
|---------------------------------|------------------------------------|
|---------------------------------|------------------------------------|
|---------------------------------|------------------------------------|
|---------------------------------|------------------------------------|
|---------------------------------|------------------------------------|
|-0-0-0-------------------1-1-1-1-|-1---------------1-1-1-1-1----------|


|---------------------------------|---------------------------------|
|---------------------------------|---------------------------------|
|---------------------------------|---------------------------------|
|---------------------------------|---------------------------------|
|---------------------------------|---------------------------------|
|---------2-2-2-2-0-0-0-0---------|---------------------------------|
|-0-0-0-0-----------------1-1-1-1-|-1-1-1-1-1-1-1-1-4-4-4-4-4-4-4-4-|
|
|---------------------------------|---------------------------------|
|---------------------------------|---------------------------------|
|---------------------------------|---------------------------------|
|---------------------------------|---------------------------------|
|---------------------------------|---------------------------------|
|---------------------------------|---------------------------------|
|-0-0-0-------------------1-1-1-1-|-1---------------4-4-4-4-4-------|


|-------------------|---------------------||
|-------------------|---------------------||
|-------------------|--------------------o||
|-------------------|---------------------||
|-------------------|--------------------o||
|-------------------|---------------------||
|-0-0-0-----0-0-0-0-|-0----0-0-0-0-0------||
|
|-------------------|---------------------||
|-------------------|---------------------||
|-------------------|--------------------o||
|-------------------|---------------------||
|-------------------|--------------------o||
|-------------------|---------------------||
|-0-0-0-----0-0-0-0-|-0----0-0-0-0-0------||


   Night is Eternal...
    N.C.
||----------------------------------|---------------------------------|
||----------------------------------|---------------------------------|
||o---------------------------------|---------------------------------|
||----------------------------------|---------------------------------|
||o---------------------------------|---------------------------------|
||----------2-2-2-2-0-0-0-0---------|---------------------------------|
||--0-0-0-0-----------------1-1-1-1-|-1-1-1-1-1-1-1-1-4-4-4-4-4-4-4-4-|
|
||----------------------------------|---------------------------------|
||----------------------------------|---------------------------------|
||o---------------------------------|---------------------------------|
||----------------------------------|---------------------------------|
||o---------------------------------|---------------------------------|
||----------2-2-2-2-0-0-0-0---------|---------------------------------|
||--0-0-0-0-----------------1-1-1-1-|-1-1-1-1-1-1-1-1-4-4-4-4-4-4-4-4-|


|---------------------------------|------------------------------------|
|---------------------------------|------------------------------------|
|---------------------------------|------------------------------------|
|---------------------------------|------------------------------------|
|---------------------------------|------------------------------------|
|---------2-2-2-2-0-0-0-0---------|------------------------------------|
|-0-0-0-0-----------------1-1-1-1-|-1-1-1-1-1-1-1-1-1-1-1-1-1-1-1-1----|
|
|---------------------------------|------------------------------------|
|---------------------------------|------------------------------------|
|---------------------------------|------------------------------------|
|---------------------------------|------------------------------------|
|---------------------------------|------------------------------------|
|---------2-2-2-2-0-0-0-0-3-3-3-3-|-3-3-3-3-3-3-3-3-3-3-3-3-3-3-3-3----|
|-0-0-0-0-------------------------|------------------------------------|


  Gtrs I, II
|---------------------------------|
|---------------------------------|
|---------------------------------|
|---------------------------------|
|---------------------------------|
|---------2-2-2-2-0-0-0-0---------|
|-0-0-0-0-----------------1-1-1-1-|


                                    B5
|---------------------------------|-------------|----------------||
|---------------------------------|-------------|----------------||
|---------------------------------|-------------|---------------o||
|---------------------------------|-------------|----------------||
|---------------------------------|-------------|---------------o||
|---------------------------------|-2-2-----2-2-|-2----2-2-2-----||
|-1-1-1-1-1-1-1-1-4-4-4-4-4-4-4-4-|-0-0-----0-0-|-0----0-0-0-----||


   ...of the Beast!
    N.C.
    Gtr I
||------------|---------------|-----------|----------------|
||------------|---------------|-----------|----------------|
||o-----------|---------------|-----------|----------------|
||------------|---------------|-----------|----------------|
||o-----------|---------------|-----------|----------------|
||------------|---------------|-----------|----------------|
||--0------1--|-(1)--4--4--1--|-0------1--|-(1)--4--4--1---|
|
|   Gtr II
||------------|---------------|-----------|----------------|
||------------|---------------|-----------|----------------|
||o-----------|---------------|-----------|----------------|
||--9---------|-(9)-----9--7--|-----------|----------------|
||o-----------|---------------|-9------7--|-(7)--3--6--3---|
||--7---------|-(7)-----7--5--|-----------|----------------|
||------------|---------------|-7------5--|-(5)--1--4--1---|


|-----------|---------------|------------|----------------||
|-----------|---------------|------------|----------------||
|-----------|---------------|------------|---------------o||
|-----------|---------------|------------|----------------||
|-----------|---------------|------------|---------------o||
|-----------|---------------|------------|----------------||
|-0------1--|-(1)--4--4--1--|-0-------1--|-(1)--4--4--1---||
|
|-----------|---------------|------------|----------------||
|-----------|---------------|------------|----------------||
|-----------|------------7--|-7----------|---------------o||
|-9---------|-(9)-----9-----|------7-----|----------------||
|-----------|------------5--|-5----------|-10---6--9--6--o||
|-7---------|-(7)-----7-----|------5-----|----------------||
|-----------|---------------|------------|--8---4--7--4---||


  B5
 2/4
  Gtrs I, II
|------|-----|-----|
|------|-----|-----|
|------|-----|-----|
|------|-----|-----|
|------|-----|-----|
|-2----|-----|-----|
|-0----|-----|-----|


 Outro
  B5 F#5E5                   B5 F#5E5 C5          D#5
 4/4
  Gtr I
|-------------|------------|-------------|-------------|
|-------------|------------|-------------|-------------|
|-------------|------------|-------------|-------------|
|-------------|------------|-------------|-------------|
|----4--2-----|------------|----4--2-----|-------------|
|-2--2--0-----|------------|-2--2--0--3--|-(3)----6----|
|-0--------1--|-(1)--------|-0--------1--|-(1)----4----|
|
| Gtr II
|-------------|------------|-------------|-------------|
|-------------|------------|-------------|-------------|
|-------------|------------|-------------|-------------|
|-------------|------------|-------------|-------------|
|----4--2-----|------------|----4--2-----|-------------|
|-2--2--0--3--|-(3)--------|-2--2--0--3--|-(3)----6----|
|-0-----------|------------|-0--------1--|-(1)----4----|


  B5 F#5E5
|-------------|------------|-----------------|-----------------|
|-------------|------------|-----------------|-----------------|
|-------------|------------|-----------------|-----------------|
|-------------|------------|-----------------|-----------------|
|----4--2-----|------------|-----------------|-----------------|
|-2--2--0-----|------------|-----2-2-0-0-----|-----------------|
|-0--------1--|-(1)--------|-0-0---------1-1-|-1-1-1-1-4-4-4-4-|
|
|-------------|------------|-----------------|-----------------|
|-------------|------------|-----------------|-----------------|
|-------------|------------|-----------------|-----------------|
|-------------|------------|-----------------|-----------------|
|----4--2-----|------------|-----------------|-----------------|
|-2--2--0--3--|-(3)--------|-----2-2-0-0-----|-----------------|
|-0-----------|------------|-0-0---------1-1-|-1-1-1-1-4-4-4-4-|


  N.C.
|-----------------|-----------------|-----------------|-----------------|
|-----------------|-----------------|-----------------|-----------------|
|-----------------|-----------------|-----------------|-----------------|
|-----------------|-----------------|-----------------|-----------------|
|-----------------|-----------------|-----------------|-----------------|
|-----2-2-0-0-----|-----------------|-----2-2-0-0-----|-----------------|
|-0-0---------1-1-|-1-1-1-1-1-1-1-1-|-0-0---------1-1-|-1-1-1-1-4-4-4-4-|
|
|-----------------|-----------------|-----------------|-----------------|
|-----------------|-----------------|-----------------|-----------------|
|-----------------|-----------------|-----------------|-----------------|
|-----------------|-----------------|-----------------|-----------------|
|-----------------|-----------------|-----------------|-----------------|
|-----2-2-0-0-3-3-|-3-3-3-3-3-3-3-3-|-----2-2-0-0-----|-----------------|
|-0-0-------------|-----------------|-0-0---------1-1-|-1-1-1-1-4-4-4-4-|


|-----------------|-----------------|---------------------------------|
|-----------------|-----------------|---------------------------------|
|-----------------|-----------------|---------------------------------|
|-----------------|-----------------|---------------------------------|
|-----------------|-----------------|---------------------------------|
|-----2-2-0-0-----|-----------------|---------2-2-2-2-0-0-0-0---------|
|-0-0---------1-1-|-1-1-1-1-1-1-1-1-|-0-0-0-0-----------------1-1-1-1-|
|
|-----------------|-----------------|---------------------------------|
|-----------------|-----------------|---------------------------------|
|-----------------|-----------------|---------------------------------|
|-----------------|-----------------|---------------------------------|
|-----------------|-----------------|---------------------------------|
|-----2-2-0-0-3-3-|-3-3-3-3-3-3-3-3-|---------2-2-2-2-0-0-0-0---------|
|-0-0-------------|-----------------|-0-0-0-0-----------------1-1-1-1-|


|------------------------------------|
|------------------------------------|
|------------------------------------|
|------------------------------------|
|------------------------------------|
|------------------------------------|
|-1-1-1-1-1-1-1-1-4-4-4-4-4-4-4-4----|
|
|------------------------------------|
|------------------------------------|
|------------------------------------|
|------------------------------------|
|------------------------------------|
|------------------------------------|
|-1-1-1-1-1-1-1-1-4-4-4-4-4-4-4-4----|


|---------------------------------|---------------------------------|
|---------------------------------|---------------------------------|
|---------------------------------|---------------------------------|
|---------------------------------|---------------------------------|
|---------------------------------|---------------------------------|
|---------2-2-2-2-0-0-0-0---------|---------------------------------|
|-0-0-0-0-----------------1-1-1-1-|-1-1-1-1-1-1-1-1-1-1-1-1-1-1-1-1-|
|
|---------------------------------|---------------------------------|
|---------------------------------|---------------------------------|
|---------------------------------|---------------------------------|
|---------------------------------|---------------------------------|
|---------------------------------|---------------------------------|
|---------2-2-2-2-0-0-0-0-3-3-3-3-|-3-3-3-3-3-3-3-3-3-3-3-3-3-3-3-3-|
|-0-0-0-0-------------------------|---------------------------------|


|---------------------------------|------------------------------------|
|---------------------------------|------------------------------------|
|---------------------------------|------------------------------------|
|---------------------------------|------------------------------------|
|---------------------------------|------------------------------------|
|---------2-2-2-2-0-0-0-0---------|------------------------------------|
|-0-0-0-0-----------------1-1-1-1-|-1-1-1-1-1-1-1-1-4-4-4-4-4-4-4-4----|
|
|---------------------------------|------------------------------------|
|---------------------------------|------------------------------------|
|---------------------------------|------------------------------------|
|---------------------------------|------------------------------------|
|---------------------------------|------------------------------------|
|---------2-2-2-2-0-0-0-0---------|------------------------------------|
|-0-0-0-0-----------------1-1-1-1-|-1-1-1-1-1-1-1-1-4-4-4-4-4-4-4-4----|


|---------------------------------|---------------------------------|
|---------------------------------|---------------------------------|
|---------------------------------|---------------------------------|
|---------------------------------|---------------------------------|
|---------------------------------|---------------------------------|
|---------2-2-2-2-0-0-0-0---------|---------------------------------|
|-0-0-0-0-----------------1-1-1-1-|-1-1-1-1-1-1-1-1-1-1-1-1-1-1-1-1-|
|
|---------------------------------|---------------------------------|
|---------------------------------|---------------------------------|
|---------------------------------|---------------------------------|
|---------------------------------|---------------------------------|
|---------------------------------|---------------------------------|
|---------2-2-2-2-0-0-0-0-3-3-3-3-|-3-3-3-3-3-3-3-3-3-3-3-3-3-3-3-3-|
|-0-0-0-0-------------------------|---------------------------------|


|---------------------------------|------------------------------------|
|---------------------------------|------------------------------------|
|---------------------------------|------------------------------------|
|---------------------------------|------------------------------------|
|---------------------------------|------------------------------------|
|---------2-2-2-2-0-0-0-0---------|------------------------------------|
|-0-0-0-0-----------------1-1-1-1-|-1-1-1-1-1-1-1-1-4-4-4-4-4-4-4-4----|
|
|---------------------------------|------------------------------------|
|---------------------------------|------------------------------------|
|---------------------------------|------------------------------------|
|---------------------------------|------------------------------------|
|---------------------------------|------------------------------------|
|---------2-2-2-2-0-0-0-0---------|------------------------------------|
|-0-0-0-0-----------------1-1-1-1-|-1-1-1-1-1-1-1-1-4-4-4-4-4-4-4-4----|


|---------------------------------|---------------------------------|
|---------------------------------|---------------------------------|
|---------------------------------|---------------------------------|
|---------------------------------|---------------------------------|
|---------------------------------|---------------------------------|
|---------2-2-2-2-0-0-0-0---------|---------------------------------|
|-0-0-0-0-----------------1-1-1-1-|-1-1-1-1-1-1-1-1-1-1-1-1-1-1-1-1-|
|
|---------------------------------|---------------------------------|
|---------------------------------|---------------------------------|
|---------------------------------|---------------------------------|
|---------------------------------|---------------------------------|
|---------------------------------|---------------------------------|
|---------2-2-2-2-0-0-0-0-3-3-3-3-|-3-3-3-3-3-3-3-3-3-3-3-3-3-3-3-3-|
|-0-0-0-0-------------------------|---------------------------------|


|---------------------------------|------------------------------------|
|---------------------------------|------------------------------------|
|---------------------------------|------------------------------------|
|---------------------------------|------------------------------------|
|---------------------------------|------------------------------------|
|---------2-2-2-2-0-0-0-0---------|------------------------------------|
|-0-0-0-0-----------------1-1-1-1-|-1-1-1-1-1-1-1-1-4-4-4-4-4-4-4-4----|
|
|---------------------------------|------------------------------------|
|---------------------------------|------------------------------------|
|---------------------------------|------------------------------------|
|---------------------------------|------------------------------------|
|---------------------------------|------------------------------------|
|---------2-2-2-2-0-0-0-0---------|------------------------------------|
|-0-0-0-0-----------------1-1-1-1-|-1-1-1-1-1-1-1-1-4-4-4-4-4-4-4-4----|


|---------------------------------|---------------------------------*|
|---------------------------------|---------------------------------*|
|---------------------------------|---------------------------------*|
|---------------------------------|---------------------------------*|
|---------------------------------|---------------------------------*|
|---------2-2-2-2-0-0-0-0---------|---------------------------------*|
|-0-0-0-0-----------------1-1-1-1-|-1-1-1-1-1-1-1-1-1-1-1-1-1-1-1-1-*|
|
|---------------------------------|---------------------------------*|
|---------------------------------|---------------------------------*|
|---------------------------------|---------------------------------*|
|---------------------------------|---------------------------------*|
|---------------------------------|---------------------------------*|
|---------2-2-2-2-0-0-0-0-3-3-3-3-|-3-3-3-3-3-3-3-3-3-3-3-3-3-3-3-3-*|
|-0-0-0-0-------------------------|---------------------------------*|





Comments


Popular Behemoth tabs & chords
Fields Of Haar - Meggido Bass Tabs
Moonspell Rites Bass Tabs
Christgrinding Avenue Intro Tabs
Decade Of Therion Tabs
Demigod 1 Tabs
Inner Sanctum Tabs
Nephilim Rising Tabs
Ov Fire And The Void 2 Tabs
Reign Of Shemsu-hor Tabs
The Dance Of The Pagan Flames Tabs


Song lyrics



↑ Back to top | Tablatures and chords are parodies/interpretations of the original songs. You may use it for private study, scholarship, research or language learning purposes only
© 2014 AZChords.com Contact us | Privacy policy | DMCA | Add/correct tabs | Request tabs | Top 50 tabs