>
 >
Moonlight Sonata Full

Moonlight Sonata Full Guitar Tabs

Beethoven Ludwig Van - Moonlight Sonata Full chords, tabs, tablatures, lyrics

Guitar lessons | Add/correct | Request | Top 50 tabs Artists:  A B C D E F G H I J K L M N O P Q R S T U V W X Y Z 0-9

Moonlight Sonata Full Guitar Tabs – Beethoven Ludwig Van

CD, Sheet music, Poster

Do you like Moonlight Sonata Full? Share with your friends now
Tabs
Moonlight Sonate


                                               Ludwig van Beethoven


 guitar arrangement by


 Now the "=[..]=" represent the duration of a note INCLUDING the number
          "/" & "\" are not the usual slides, when you see one it means that a note 
into another, so what you have to do is play the full duration, as if without these symbols, 
when you finish one note don't release the string but quick though gently slide to the next freet 
AND strike it. ( ex |--2--/5--| = |--2-/-55-|).

   1/4 = ------


standard tuning


     Acoustic gtr 1
  4/4 1
 6E|-------------------------|-------------------------|-------------------------|
 5B|-------------------------|-------------------------|-------------------------|
 5G|-------------------------|-------------------------|-------------------------|
 5D|-------------------------|-------------------------|-------------------------|
 4A|-------------------------|-------------------------|-------------------------|
 4E|-------------------------|-------------------------|-------------------------|
   |
   |
   | Acoustic gtr 2
   |
 6E|-------------------------|-------------------------|-------------------------|
 5B|-------------------------|-------------------------|-------------------------|
 5G|-------------------------|-------------------------|-------------------------|
 5D|-----2=----2=----2=----2-|-----2=----2=----2=----2-|-----2=----2=--0-4=--1-4-|
 4A|---4=----4=----4=----4=--|---4=----4=----4=----4=--|-0-4=--0-4=--0=----0=----|
 4E|-4=----4=----4=----4=----|-4=----4=----4=----4=----|-------------------------|
 3B|-------------------------|-------------------------|-------------------------|
   |
   |
   | Bass gtr
   |
 3G|-6-----------------------|-4-----------------------|-3===========------------|
 3D|-------------------------|-------------------------|-------------4-----------|
 2A|-4-----------------------|-2-----------------------|-1===========------------|
 2E|-------------------------|-------------------------|-------------2-----------|



    4                                            __2___                    __2___
  e|-------------------------|-------------------------|-------------------------|
  b|-------------------------|-------------------------|-------------------------|
  G|-------------------------|-------------------------|-------------------------|
  D|-------------------------|-------------------6---6-|-6-----------------6---6-|
  A|-------------------------|-------------------------|-------------------------|
  E|-------------------------|-------------------------|-------------------------|
   |
   |
   |
   |
  e|-------------------------|-------------------------|-------------------------|
  b|-------------------------|-------------------------|-------------------------|
  G|-------------------------|-------------------------|-------------------------|
  D|-----4=----2=----1=----1-|-----------2=----2=----2-|-----4=----4=----4=------|
  A|---3=----4=----4=----3=--|-----4=--4=----4=----4=--|---6=----6=----6=--------|
  E|-4=----4=----4=----4=----|-0-4=--4=----4=----4=----|-4=----4=----4=----------|
  B|-------------------------|-------------------------|-------------------------|
   |
   |
   |
   |
  G|-------------------------|-6-----------------------|-5-----------------------|
  D|-6-----------6-----------|-6-----------------------|-6-----------------------|
  A|-------------------------|-4-----------------------|-3-----------------------|
  E|-4-----------4-----------|-------------------------|-------------------------|



    7
  e|-------------------------|-------------------------|-------------------------|
  b|-------------------------|-------------------------|-------------------------|
  G|-------------------------|-------------------------|-------------------------|
  D|-6----------/7-----\-----|-6----------\4----/9-----|-------------------------|
  A|-------------------------|-------------------------|-7-----------------------|
  E|-------------------------|-------------------------|-------------------------|
   |
   |
   |
   |
  e|-------------------------|-------------------------|-------------------------|
  b|-------------------------|-------------------------|-------------------------|
  G|-------------------------|-------------------------|-------------------------|
  D|-----2=----2=----4=----4-|-----2=----2=----1=----1-|-----2=----2=----2=----2-|
  A|---4=----4=--0-4=--0-4=--|---2=----2=--0-2=--0-2=--|---2=----2=----2=----2=--|
  E|-4=----4=----------------|-4=----4=----------------|-4=----4=----4=----4=----|
  B|-------------------------|-------------------------|-------------------------|
   |
   |
   |
   |
  G|-------------------------|-4-----------4-----------|-9-----------------------|
  D|-11----------4-----------|-------------------------|-------------------------|
  A|-------------------------|-2-----------2-----------|-7-----------------------|
  E|-9----------\2-----------|-------------------------|-------------------------|


    10                 __2___                    __2___
  e|-------------------------|-------------------------|-------------------------|
  b|-------------------------|-------------------------|-------------------------|
  G|-------------------------|-------------------------|-------------------------|
  D|-------------------5---6-|-5-----------------6---6-|-5----------------\4-----|
  A|-------------------------|-------------------------|-------------------------|
  E|-------------------------|-------------------------|-------------------------|
   |
   |
   |
   |
  e|-------------------------|-------------------------|-------------------------|
  b|-------------------------|-------------------------|-------------------------|
  G|-------------------------|-------------------------|-------------------------|
  D|-----2=----2=----2=----2-|-----3=----4=----4=----4-|-----2=----2=--0-2=--0-2-|
  A|---2=----2=----2=----2=--|---2=----2=----2=----2=--|---3=----2=--------------|
  E|-3=----4=----4=----4=----|-3=----4=----4=----4=----|-3=----4=----4=----3=----|
  B|-------------------------|-------------------------|-------------------------|
   |
   |
   |
  G|-9-----------------------|-7-----------------------|-5-----4-----3-----------|
  D|-------------------------|-------------------------|-------------------------|
  A|-7-----------------------|-5-----------------------|-3----\2----\1-----------|
  E|-------------------------|-------------------------|-------------------------|



     13
  e|-------------------------|-------------------------|-------------------------|
  b|-------------------------|-------------------------|-------------------------|
  G|-------------------------|-------------------------|-------------------------|
  D|-4----------/7----\2-----|-4-----------4-----------|-------------------9--/--|
  A|-------------------------|-------------------------|-------------------------|
  E|-------------------------|-------------------------|-7=====------------------|
   |
   |
   |
   |
  e|-------------------------|-------------------------|-------------------------|
  b|-------------------------|-------------------------|-------------------------|
  G|-------------------------|-------------------------|-------------------------|
  D|-----0=----0=----4=----4-|-----0=----0=------------|---0-4=--1-4=--2-4=--1-4-|
  A|---2=----2=----2=----2=--|---2=----2=----1-4=--1-4-|-2=----2=----2=----2=----|
  E|-2=----2=----3=----0=----|-2=----2=----2=----2=----|-------------------------|
  B|-------------------------|-------------------------|-------------------------|
   |
   |
   |
   |
  G|-4===========------------|-------------------------|-4----------/\-----------|
  D|-------------------------|-4----------4------------|-------------------------|
  A|-2----------/7----/10----|-------------------------|-2----------/\-----------|
  E|-------------------------|------------2------------|-------------------------|



      16
  e|-------------------------|-------------------------|-------------------------|
  b|-------------------------|-0-----------------------|-------------------------|
  G|-------------------------|-------------------------|-------------------------|
  D|-10---------------\8-----|-------------------9--/--|-10---------------\8-----|
  A|-------------------------|-------------------------|-------------------------|
  E|-------------------------|-------------------------|-------------------------|
   |
   |
   |
   |
  e|-------------------------|-------------------------|-------------------------|
  b|-------------------------|-------------------------|-------------------------|
  G|-----0=----1=----1=----1-|-------------------------|-----0=----1=----1=----1-|
  D|---2=----2=----2=----2=--|---2-4=--1-4=--1-4=--1-4-|---2=----2=----2=----2=--|
  A|-2=----2=----2=----2=----|-2=----2=----2=----2=----|-2=----2=----2=----2=----|
  E|-------------------------|-------------------------|-------------------------|
  B|-------------------------|-------------------------|-------------------------|
   |
   |
   |
  G|-4-----9-----12----9-----|-4----------/\-----------|-4-----9-----12----9-----|
  D|-------------------------|-------------------------|-------------------------|
  A|-2----/7----/10---\7-----|-2----------/\-----------|-2----/7----/10---\7-----|
  E|-------------------------|-------------------------|-------------------------|



     19
  e|-------------------------|-------------------------|
  b|-0-----------0-----------|-------------------------|
  G|-------------------------|-------------------------|
  D|-------------------------|-9----------\7-----------|
  A|-------------------------|-------------------------|
  E|-------------------------|-------------------------|
   |
   |
   |
   |
  e|-------------------------|-------------------------|
  b|-------------------------|-------------------------|
  G|-------------------------|-----2=----1=------------|
  D|---2-4=--1-4=--0-3=--1-2-|-----------------4=----4-|
  A|-2=----2=----2=----2=----|-2-4=--2-4=--0-4=--0-4=--|
  E|-------------------------|-------------------------|
  B|-------------------------|-------------------------|
   |
   |
   |
  G|-4-----------2-----------|-------------------------|
  D|-------------------------|-3-----------4-----------|
  A|-2-----------0-----------|-------------------------|
  E|-------------------------|-1-----------2-----------|



    21
  e|-------------------------|-------------------------|
  b|-------------------------|-------------------------|
  G|-------------------------|-------------------------|
  D|-5----------\4-----------|-------------------------|
  A|-------------------------|-4-----------4-----4-----|
  E|-------------------------|-------------------------|
   |
   |
   |
   |
  e|-------------------------|-------------------------|
  b|-------------------------|-------------------------|
  G|-------------------------|-------------------------|
  D|-----0=----0=----2=----1-|-------------------------|
  A|---2=----2=----0=----0=--|-----0=----0=------------|
  E|-3=----3=----2=----2=----|---2=----2=----2-4=--1-4-|
  B|-------------------------|-2=----2=----2=----2=----|
   |
   |
   |
  G|-4-----------5-----------|-------------------------|
  D|-------------------------|-------------------------|
  A|-2-----------3-----------|-4-----------4-----------|
  E|-------------------------|-------------------------|



     23                __2___                    __2___
  e|-------------------------|-------------------------|-------------------------|
  b|-------------------------|-------------------------|-------------------------|
  G|-------------------6---6-|-6-----------------6---6-|-6----------\5----/7-----|
  D|-------------------------|-------------------------|-------------------------|
  A|-------------------------|-------------------------|-------------------------|
  E|-------------------------|-------------------------|-------------------------|
   |
   |
   |
   |
  e|-------------------------|-------------------------|-------------------------|
  b|-------------------------|-----0=----0=----0=----0-|-------------------------|
  G|-----------------2=----2-|---1=----1=----1=----1=--|-----2=----2=----2=----2-|
  D|-----------4=--4=----4=--|-------------------------|---4=----4=----4=----4=--|
  A|---0-4---0=--4=----4=----|-4=----4=----4=----4=----|-4=----4=----3=----4=----|
  E|-2=----2=----------------|-------------------------|-------------------------|
  B|-------------------------|-------------------------|-------------------------|
   |
   |
   |
  G|-------------------------|-10----------------------|-10----------8-----6-----|
  D|-4-----------------------|-11----------------------|-------------------------|
  A|-4-----------------------|-8-----------------------|-9----------\6----\4-----|
  E|-2-----------------------|-------------------------|-------------------------|



     26
  e|-------------------------|-------------------------|-------------------------|
  b|-------------------------|-------------------------|-------------------------|
  G|-8-----------------8-----|-9----------\8----\6-----|-5-----------------------|
  D|-------------------------|-------------------------|-------6----/7----\2-----|
  A|-------------------------|-------------------------|-------------------------|
  E|-------------------------|-------------------------|-------------------------|
   |
   |
   |
   |
  e|-------------------------|-------------------------|-------------------------|
  b|-------------------------|-----2=----2=------------|-1=----------------------|
  G|-----1=----1=----1=----1-|---1=----1=------2=----3-|-------1=----2=----------|
  D|-1-4=--1-4=--1-4=--1-4=--|-2=----2=----1-4=----2=--|-----1=----1=----1-2=--1-|
  A|-------------------------|-------------------4=----|---3=----2=----2=----2=--|
  E|-------------------------|-------------------------|-------------------------|
  B|-------------------------|-------------------------|-------------------------|
   |
   |
   |
  G|-5-----------------4-----|-6-----------------------|-------------------------|
  D|-6-----------------6-----|-6-----------4-----4-----|-6-----------------------|
  A|-3-----------------3-----|-4-----------------------|-------------------------|
  E|-------------------------|-------------2-----2-----|-4-----------------------|



     29
  e|-------------------------|-------------------------|-------------------------|
  b|-------------------------|-------------------------|-------------------------|
  G|-------------------------|-------6----/9----\6-----|-------------------------|
  D|-------------------------|-------------------------|-------------------------|
  A|-------------------------|-------------------------|-------4----/5----\4-----|
  E|-------4----/5----\2-----|-------------------------|-------------------------|
   |
   |
   |
   | __3___                                              __3___
  e|-------------------------|-------------0=----------|-------------------------|
  b|-------------------------|-------2=----------2=----|-------------------------|
  G|-------------------------|-----1=----1=----1=----1-|-------------------------|
  D|-----1=----1=----1=----1-|---2=----2=----2=----2=--|-------------1=----------|
  A|---3=----2=--0-2=----2=--|-------------------------|-------4=----------4=----|
  E|-------4=----------2=----|-0=----------------------|---0-4=--0-4=--0-4=--0-4-|
  B|-------------------------|-------------------------|-------------------------|
   |
   |
   |
  G|-------------------------|-------------------------|-------------------------|
  D|-6-----------------------|-6-----------------------|-6-----------------------|
  A|-------------------------|-------------------------|-------------------------|
  E|-4-----------------------|-4-----------------------|-4-----------------------|



     32
  e|-------------------------|-------------------------|-------------------------|
  b|-------------------------|-------------------------|-------------------------|
  G|-------------------------|-------------------------|-------------------------|
  D|-------------------------|-------------------------|-------------------------|
  A|-------------------------|-------------------------|-------------------------|
  E|-------------------------|-------------------------|-------------------------|
   |
   |
   |
   |
  e|-------------------------|-------------------0=----|---------------0=--2-0-6-|
  b|-----------------------1-|---------------2=----2=--|-----------2=----2=------|
  G|-------------------2=----|-----------1=----1=----1-|-------3=----2=----------|
  D|-----------1=--4-1=--4=--|-------2=----2=----------|---4-2=--4=--------------|
  A|---1=--3-0=--2=----------|---4=----4=--------------|-4=----------------------|
  E|-----2=------------------|-----4=------------------|-------------------------|
  B|-4=----------------------|-2=----------------------|-------------------------|
   |
   |
   |
  G|-------------------------|-------------------------|-------------------------|
  D|-6-----------------------|-6-----------------------|-6-----------------------|
  A|-------------------------|-------------------------|-------------------------|
  E|-4-----------------------|-4-----------------------|-4-----------------------|



    35
  e|-------------------------|-------------------------|
  b|-------------------------|-------------------------|
  G|-------------------------|-------------------------|
  D|-------------------------|-------------------------|
  A|-------------------------|-------------------------|
  E|-------------------------|-------------------------|
   |
   |
   |
   |
  e|-----------3=--5=--8-5-11|-8=--5=--2=--------------|
  b|---1=--4-0=--4=--7=------|---7=--4=--1-4=--0=------|
  G|-0=--2=------------------|---------------2=----2=--|
  D|-------------------------|-------------------4=--1-|
  A|-------------------------|-------------------------|
  E|-------------------------|-------------------------|
  B|-------------------------|-------------------------|
   |
   |
   |
  G|-------------------------|-------------------------|
  D|-6---------/\------------|-6------------/\---------|
  A|-------------------------|-------------------------|
  E|-4---------/\------------|-4------------/\---------|



    37
  e|-------------------------|-------------------------|-------------------------|
  b|-------------------------|-------------------------|-------------------------|
  G|-------------------------|-------------------------|-------------------------|
  D|-------------------------|-------------------------|-------------------------|
  A|-------------0=----------|-------------------------|-------------------------|
  E|-------------------------|-------------------------|-------------------------|
   |
   |
   |
   |
  e|-------------------------|-------------------------|-------------------------|
  b|-------------------------|-------------------------|-------------------------|
  G|-------------------------|-------------------------|-------------------------|
  D|-4=--1=------------------|-------------------------|-------------------------|
  A|---3=--0-3=--0=--------0-|-------0=--------0=----0-|-------0=--------0=----0-|
  E|-----------2=----2=--2=--|---2-4=--4-2=--2=----2=--|---2-4=--4-2=--2=----2=--|
  B|---------------4=--2=----|-1=----------4=----2=----|-1=----------3=----2=----|
   |
   |
   |
  G|-------------------------|-------------------------|-------------------------|
  D|-6-----------------------|-6-----------------------|-6-----------------------|
  A|-------------------------|-------------------------|-------------------------|
  E|-4-----------------------|-4-----------------------|-4-----------------------|



     40                                                                    __2___
  e|-------------------------|-------------------------|-------------------------|
  b|-------------------------|-------------------------|-------------------------|
  G|-------------------------|-------------------------|-------------------------|
  D|-------------------------|-------------------------|-------------------6---6-|
  A|-------------------------|-------------------------|-------------------------|
  E|-------------------------|-------------------------|-------------------------|
   |
   |
   |
   |
  e|-------------------------|-------------------------|-------------------------|
  b|-------------------------|-------------------------|-------------------------|
  G|-------------------------|-------------------------|-------------------------|
  D|-------------------------|-------------------------|-----------2=----2=----2-|
  A|-------0=--------4=----4-|-----4=----4=----3=----2-|-----4=--4=----4=----4=--|
  E|---2-4=--4-2=--0=----0=--|---0=----0=----4=----4=--|-0-4=--4=----4=----4=----|
  B|-1=----------2=----2=----|-4=----4=----4=----4=----|-------------------------|
   |
   |
   |
  G|-------------------------|-------------------------|-6-----------------------|
  D|-6-----------8-----------|-4-----------6-----------|-6-----------------------|
  A|-------------------------|-------------------------|-4-----------------------|
  E|-4-----------6-----------|-2-----------4-----------|-------------------------|



     43                __2___
  e|-------------------------|-------------------------|-------------------------|
  b|-------------------------|-------------------------|-------------------------|
  G|-------------------------|-------------------------|-------------------------|
  D|-6-----------------6---6-|-6--------\7------/------|-6----------\4----/9-----|
  A|-------------------------|-------------------------|-------------------------|
  E|-------------------------|-------------------------|-------------------------|
   |
   |
   |
   |
  e|-------------------------|-------------------------|-------------------------|
  b|-------------------------|-------------------------|-------------------------|
  G|-------------------------|-------------------------|-------------------------|
  D|---1-4=--1-4=--1-4=--1-4-|-----2=----2=----4=----4-|-----2=----2=----1=----1-|
  A|-------------------------|---4=----4=--0-4=--0-4=--|---2=----2=--0-2=--0-2=--|
  E|-4=----4=----4=----4=----|-4=----4=----------------|-4=----4=----------------|
  B|-------------------------|-------------------------|-------------------------|
   |
   |
   |
  G|-5-----------------------|-------------------------|-4-----------4-----------|
  D|-6-----------------------|-11----------4-----------|-------------------------|
  A|-3-----------------------|-------------------------|-2-----------2-----------|
  E|-------------------------|-9----------\2-----------|-------------------------|



     46                __2___                    __2___
  e|-------------------------|-------------------------|-------------------------|
  b|-------------------------|-------------------------|-------------------------|
  G|-------------------4---4-|-4-----------------4---4-|-4----------/5----/6-----|
  D|-------------------------|-------------------------|-------------------------|
  A|-7=====------------------|-------------------------|-------------------------|
  E|-------------------------|-------------------------|-------------------------|
   |
   |
   |
   |
  e|-------------------------|-------------------------|-------------------------|
  b|-------------------------|-------------------------|-------------------------|
  G|-------------------------|-----2=----2=----2=----2-|-----------------1=----1-|
  D|-----2=----2=----2=----2-|---4=----4=----4=----4=--|-----2=----2=--4=----2=--|
  A|---2=----2=----2=----2=--|-2=----2=----2=----2=----|---2=----2=--3=----4=----|
  E|-4=----4=----4=----4=----|-------------------------|-4=----4=----------------|
  B|-------------------------|-------------------------|-------------------------|
   |
   |
   |
  G|-9-----------------------|-8-----------------------|-9-----------8-----6-----|
  D|-------------------------|-------------------------|-------------------------|
  A|-7-----------------------|-6-----------------------|-7-----------6-----4-----|
  E|-------------------------|-------------------------|-------------------------|



     49
  e|-------------------------|-------------------------|-------------------------|
  b|-4----------/5------\----|-3----------\1-----------|-2-----------------2--/--|
  G|-------------------------|-------------------------|-------------------------|
  D|-------------------------|-------------------------|-------------------------|
  A|-------------------------|-------------------------|-------------------------|
  E|-------------------------|-------------------------|-------------------------|
   |
   |
   |
   |
  e|-------------------------|-------------------------|-------------------------|
  b|-----------------2=----2-|-------------------------|-------------------------|
  G|-----1=----1=--1=----1=--|-----2=----2=----1=----1-|-----1=----1=----1=----1-|
  D|-1-4=--1-4=--2=----2=----|-0-4=--1-4=----4=----4=--|---2=----2=----3=----2=--|
  A|-------------------------|-------------3=----2=----|-4=----4=----4=----4=----|
  E|-------------------------|-------------------------|-------------------------|
  B|-------------------------|-------------------------|-------------------------|
   |
   |
   |
  G|-5-----------6-----------|-------------------------|-6-----------/\----------|
  D|-6-----------6-----------|-4-----------6-----------|-------------------------|
  A|-3----------/4-----------|-------------------------|-4-----------/\----------|
  E|-------------------------|-2----------/4-----------|-------------------------|



    52
  e|-------------------------|-------------------------|-------------------------|
  b|-4----------------\1-----|-2-----------------2--/--|-3----------------\1-----|
  G|-------------------------|-------------------------|-------------------------|
  D|-------------------------|-------------------------|-------------------------|
  A|-------------------------|-------------------------|-------------------------|
  E|-------------------------|-------------------------|-------------------------|
   |
   |
   |
   |
  e|-------------------------|-------------------------|-------------------------|
  b|-------------------------|-------------------------|-------------------------|
  G|-----2=----2=----2=----2-|-----1=----1=----1=----1-|-----2=----2=----2=----2-|
  D|---4=----4=----4=----4=--|---3=----2=----2=----2=--|---4=----4=----4=----4=--|
  A|-4=----4=----4=----4=----|-4=----4=----4=----4=----|-4=----4=----4=----4=----|
  E|-------------------------|-------------------------|-------------------------|
  B|-------------------------|-------------------------|-------------------------|
   |
   |
   |
  G|-6-----11----14----11----|-6----------/\-----------|-6-----11----14----11----|
  D|-------------------------|-------------------------|-------------------------|
  A|-4-----9----/12---\9-----|-4----------/\-----------|-4-----9----/12---\9-----|
  E|-------------------------|-------------------------|-------------------------|



    55
  e|-------------------------|-------------------------|-------------------------|
  b|-2-----------2-----------|-0------------0----------|-------------------------|
  G|-------------------------|-------------------------|-2-----2-----1-----1-----|
  D|-------------------------|-------------------------|-------------------------|
  A|-------------------------|-------------------------|-------------------------|
  E|-------------------------|-------------------------|-------------------------|
   |
   |
   |
   |
  e|-------------------------|-------------------------|-------------------------|
  b|-------------------------|-------------------------|-------------------------|
  G|-------------------------|-----2=----2=----2=----1-|-----1=----1=----1=------|
  D|-----1=----1=----2=----2-|---4=----4=----4=----2=--|---2=----2=----2=------2-|
  A|---3=----3=----4=----4=--|-2=----2=----2=----2=----|-0=----0=------------4=--|
  E|-4=----4=----4=----4=----|-------------------------|-------------4=----4=----|
  B|-------------------------|-------------------------|-------------------------|
   |
   |
   |
  G|-6===========------------|-------------------7-----|-6-----8-----5-----6-----|
  D|-------------4----/------|-13----------------------|-------------------------|
  A|-4===========------------|-------------------5-----|-4----/6----\3----/4-----|
  E|-------------2----/------|-11----------------------|-------------------------|



    58
  e|-------------------------|-------------------------|-------------------------|
  b|-------------------------|-------------------------|-------------------------|
  G|-------------------------|-0-----------0-----------|-------------------------|
  D|-4---------/5-----/7-----|-------------------------|-------------------------|
  A|-------------------------|-------------------------|-4=====------------------|
  E|-------------------------|-------------------------|-------------------------|
   |
   |
   |
   |
  e|-------------------------|-------------------------|-------------------------|
  b|-------------------------|-------------------------|-------------------------|
  G|-------------------------|-------------------------|-------------------------|
  D|-----1=----1=----1=----1-|-----2=----2=----1=----1-|-----2=----2=----2=----2-|
  A|---4=----4=----4=--0-4=--|---4=----4=----3=----3=--|---4=----4=----4=----4=--|
  E|-2=----2=----4=----------|-4=----4=----2=----2=----|-4=----4=----4=----4=----|
  B|-------------------------|-------------------------|-------------------------|
   |
   |
   |                                                                       __2___
  G|-------------------------|-------------------------|-------------------------|
  D|-7-----------6-----4-----|-6-----------6-----------|-6-----------------6---6-|
  A|-------------------------|-------------------------|-4-----------------------|
  E|-5-----------4-----2-----|-4-----------4-----------|-------------------------|



    61
  e|-------------------------|-------------------------|-------------------------|
  b|-------------------------|-------------------------|-------------------------|
  G|-------------------------|-------------------------|-------------------------|
  D|-------------------------|-------------------------|-------------------------|
  A|-------------------------|-------------------------|-------------------3-----|
  E|-------------------------|-------------------------|-------------------------|
   |
   |
   |
   |
  e|-------------------------|---------------0=--4-0=--|-------------------------|
  b|-------------------------|-----------2=----2=----2-|-1-4=--0=--2=------------|
  G|-------------------------|-------1=----1=----------|---------4=--------------|
  D|---1-4=--1-4=--1-4=--1-4-|---2=----2=--------------|-----2=------1-4=--------|
  A|-------------------------|-----4=------------------|-----------------0===----|
  E|-4=----4=----4=----4=----|-4=----------------------|---------------------4-2-|
  B|-------------------------|-------------------------|-------------------------|
   |
   |
   |                   __2___                    __2___                    __2___
  G|-------------------------|-------------------------|-------------------------|
  D|-6-----------------6---6-|-6-----------------6---6-|-6-----------------6---6-|
  A|-5-----------------------|-4-----------------------|-------------------------|
  E|-------------------------|-------------------------|-4-----------------------|



     64
  e|-------------------------|-------------------------|
  b|-------------------------|-------------------------|
  G|-------------------------|-------------------------|
  D|-------------------------|-------------------------|
  A|-4=====------------------|-------------------3-----|
  E|-------------------------|-------------------------|
   |
   |
   |
   |
  e|---------------0=--4-0=--|-------------------------|
  b|-----------2=----2=----2-|-1-4=--0=--2=------------|
  G|-------1=----1=----------|---------4=--------------|
  D|---2=----2=--------------|-----2=------1-4=--------|
  A|-----4=------------------|-----------------0-0=----|
  E|-0=----------------------|---------------------4-2-|
  B|-------------------------|-------------------------|
   |
   |
   |                   __2___                    __2___
  G|-------------------------|-------------------------|
  D|-6-----------------6---6-|-6-----------------6---6-|
  A|-4-----------------------|-------------------------|
  E|-------------------------|-4-----------------------|



     66
  e|-------------------------|-------------------------|
  b|-------------------------|-------------------------|
  G|-------------------------|-------------------------|
  D|-------------------------|-------------------------|
  A|-4=====------------------|-------------------------|
  E|-------------------------|-------------------------|
   |
   |
   |
   |             __3___        __3___
  e|-------------------------|-------------------------|
  b|-------------------------|-------------------------|
  G|-------------------------|-------------------------|
  D|-------2=----------------|-------------------------|
  A|-----4=--4=--------4=----|-------------------------|
  E|-0-4=------4=--0-4=--4-0-|-----0-4-0=--------------|
  B|-------------------------|---2=------2=------------|
   |
   |
   |                                       __3_____3___
  G|-------------6-----------|---------------6=--------|
  D|-6===========------------|-6-----------6=--6=--6=--|
  A|-4-----------------------|-4-----------------7=--7-|
  E|-------------------------|-------------------------|



     68
  e|-------------------------|-------------------------|
  b|-------------------------|-------------------------|
  G|-------------------------|-------------------------|
  D|-------------------------|-------------------------|
  A|-------------------------|-------------------------|
  E|-------------4-----------|-4-----------------------|
   |
   |
   |
   |
  e|-------------------------|-------------------------|
  b|-------------------------|-------------------------|
  G|-------------------------|-------------------------|
  D|-------------------------|-------------------------|
  A|-------------4-----------|-4-----------------------|
  E|-------------0-----------|-0-----------------------|
  B|-------------------------|-------------------------|
   |
   |
   |
  G|-------------6-----------|-6-----------------------|
  D|-------------6-----------|-6-----------------------|
  A|-4-----------4-----------|-4-----------------------|
  E|-------------------------|-------------------------|

                           Fine.





Comments


Popular Beethoven Ludwig Van tabs & chords
5th Symbhony Tabs
9th Symphony Tabs
Allegreto In A Tabs
Allegreto In G Tabs
Fifth Tabs
Fur Elise Tabs
Fur Elise (Intro) Tabs
Moonlight Sonata Tabs
Ode To Joy Tabs
Sonate Pathetique Tabs


Song lyrics



↑ Back to top | Tablatures and chords are parodies/interpretations of the original songs. You may use it for private study, scholarship, research or language learning purposes only
© 2014 AZChords.com Contact us | Privacy policy | DMCA | Add/correct tabs | Request tabs | Top 50 tabs