» » »

Beethoven Ludwig Van, Fur Elise Tabs (ver.1)

Artists:  A B C D E F G H I J K L M N O P Q R S T U V W X Y Z # 

Fur Elise Tabs (ver.1)

Beethoven Ludwig Van Tabs
Rating:
0/5 (0 votes)
Fur Elise lessons Tabs too difficult? Try these video lessons and learn fast
                FUR ELISE
Ludwig Van Beethoven


|    = quarter note   |.   = dotted quarter note
       __                           __
|_ and |   = eighth note    |_. and | .   = dotted eighth note
       ==                            ==
|= and |   = sixteenth note  |=. and | .  = dotted sixteenth

; = eighth rest
, = sixteenth rest

Part A:

     _____      _____________________
     |   |      |   |   |   |   |   |     |
  e|-12--11--||-12--11--12--------------|-------------------------|
  B|---------||-------------12--15--13--|-------------------------|
3 G|--------o||o------------------------|-14------------------14--|
- D|--------o||o------------------------|-----------------14------|
4 A|---------||-------------------------|-0-------12--15----------|
  E|---------||-------------------------|-----12------------------|
                                          |___|___|___|___|___|


                  _____                     _____
  |               |   |     |               |   |
|-------------------------|-----------------12--11--|
|-12------------------12--|-13----------------------|
|-----------------13------|-------------------------|
|-------------14----------|-------------14----------|
|---------11--------------|-0-------12--------------|
|-0---12------------------|-----12------------------|
  |___|___|___|             |___|___|___|


  _____________________
  |   |   |   |   |   |     |
|-12--11--12--------------|-------------------------|
|-------------12--15--13--|-------------------------|
|-------------------------|-14------------------14--|
|-------------------------|-----------------14------|
|-------------------------|-0-------12--15----------|
|-------------------------|-----12------------------|
                            |___|___|___|___|___|

                  _____                      _____
  |               |   |     |                |   |
|-------------------------|------------------12--11--|
|-12--------------13--12--|--------------------------|
|-------------------------|-14-----------------------|
|-------------14----------|--------------------------|
|---------11--------------|-0-------12---------------|
|-0---12------------------|-----12-------------------|
  |___|___|___|             |___|___|    ;


  _____________________
  |   |   |   |   |   |     |
|-12--11--12--------------|-------------------------|
|-------------12--15--13--|-------------------------|
|-------------------------|-14------------------14--|
|-------------------------|-----------------14------|
|-------------------------|-0-------12--15----------|
|-------------------------|-----12------------------|
                            |___|___|___|___|___|


                  _____                     _____
  |               |   |     |               |   |
|-------------------------|-----------------12--11--|
|-12------------------12--|-13----------------------|
|-----------------13------|-------------------------|
|-------------14----------|-------------14----------|
|---------11--------------|-0-------12--------------|
|-0---12------------------|-----12------------------|
  |___|___|___|             |___|___|___|



  _____________________
  |   |   |   |   |   |     |
|-12--11--12--------------|-------------------------|
|-------------12--15--13--|-------------------------|
|-------------------------|-14------------------14--|
|-------------------------|-----------------14------|
|-------------------------|-0-------12--15----------|
|-------------------------|-----12------------------|
                            |___|___|___|___|___|


                  _____               ___   _____
  |               |   |     |       ;   |   |   |
|-------------------------|-------------------------||
|-12--------------13--12--|-------------12--13--15--||
|-------------------------|-14---------------------o||
|-------------14----------|------------------------o||
|---------11--------------|-0-------12--------------||
|-0---12------------------|-----12------------------||
  |___|___|___|             |___|   |_  ;


Part B:
                   _____                     _____
   |               |   |     |.              |   |
||-12--------------13--12--|-10--------------12------|
||-------------------------|--------(0)----------15--|
||o------------12----------|----(0)------------------|
||o--------10--------------|-------------15----------|
||-----10------------------|-----10--14--------------|
||-8-----------------------|-3-----------------------|
   |___|___|___|             |___|___|___|

                  _____                     ___
  |               |   |     |               |   ;
|-------------------------|-----------------12------|
|-13--------------15--13--|-12----------------------|
|-------------------------|-------------------------|
|-------------14----------|---------14--14----------|
|-0-------12--------------|-------------------------|
|-----12------------------|-0---12--------------0---|
  |___|___|___|             |___|___|___|    ; _|

    ___   ___       ___               ___   _____
   ;  |   |  ;     ;  |     |        ;  |   |   |
|-----12--24----------10--|-12----------11--12--11--||
|-------------------------|-------------------------||
|-------------------------|------------------------o||
|-------------------------|------------------------o||
|-------------------------|-------------------------||
|-12----------11--12------|-----11--12--------------||
  |        ; _|   |_ ;       ; _|   |_ ;


Part A:

   _____________________
   |   |   |   |   |   |     |
||-12--11--12--------------|-------------------------|
||-------------12--15--13--|-------------------------|
||-------------------------|-14------------------14--|
||-------------------------|-----------------14------|
||-------------------------|-0-------12--15----------|
||-------------------------|-----12------------------|
                             |___|___|___|___|___|


                  _____                     _____
  |               |   |     |               |   |
|-------------------------|-----------------12--11--|
|-12------------------12--|-13----------------------|
|-----------------13------|-------------------------|
|-------------14----------|-------------14----------|
|---------11--------------|-0-------12--------------|
|-0---12------------------|-----12------------------|
  |___|___|___|             |___|___|___|



  _____________________
  |   |   |   |   |   |     |
|-12--11--12--------------|-------------------------|
|-------------12--15--13--|-------------------------|
|-------------------------|-14------------------14--|
|-------------------------|-----------------14------|
|-------------------------|-0-------12--15----------|
|-------------------------|-----12------------------|
                            |___|___|___|___|___|


                  _____               ___   _____
  |               |   |     |       ;   |   |   |
|-------------------------|-------------------------||
|-12--------------13--12--|-------------12--13--15--||
|-------------------------|-14---------------------o||
|-------------14----------|------------------------o||
|---------11--------------|-0-------12--------------||
|-0---12------------------|-----12------------------||
  |___|___|___|             |___|   |_  ;


Play part B again, then:

Part A:
.   _____________________
   |   |   |   |   |   |     |
||-12--11--12--------------|-------------------------|
||-------------12--15--13--|-------------------------|
||-------------------------|-14------------------14--|
||-------------------------|-----------------14------|
||-------------------------|-0-------12--15----------|
||-------------------------|-----12------------------|
                             |___|___|___|___|___|


                  _____                     _____
  |               |   |     |               |   |
|-------------------------|-----------------12--11--|
|-12------------------12--|-13----------------------|
|-----------------13------|-------------------------|
|-------------14----------|-------------14----------|
|---------11--------------|-0-------12--------------|
|-0---12------------------|-----12------------------|
  |___|___|___|             |___|___|___|



  _____________________
  |   |   |   |   |   |     |
|-12--11--12--------------|-------------------------|
|-------------12--15--13--|-------------------------|
|-------------------------|-14------------------14--|
|-------------------------|-----------------14------|
|-------------------------|-0-------12--15----------|
|-------------------------|-----12------------------|
                            |___|___|___|___|___|



                  _____               ___   _____
  |               |   |     |       ;   |   |   |
|-------------------------|-------------8---8---8---||
|-12--------------13--12--|---------------------0---||
|-------------------------|-14----------9---10--0--o||
|-------------14----------|-------------10--10--10-o||
|---------11--------------|-0-------12--13--12--13--||
|-0---12------------------|-----12------------------||
  |___|___|___|             |___|___|___|___|___|


[only the first 12 bars have been tabbed - the key has been
changed from Am to Em - it's easier to play than the versions



e|----------7-6|7-6-7---5-3|0---------0|2-------0-2|3---------7-6|
b|-------------|------7----|--------0--|------0----|-------------|
g|-------------|-----------|------0----|----2------|-------0-----|
d|-------------|-----------|----2------|--1--------|-----2-------|
a|-------------|-----------|--2--------|2----------|---2---------|
e|-------------|-----------|0----------|-----------|0------------|


e|7-6-7---5-3|0---------0|2-------3-2|0--------2-3-5|7---------8-7|
b|------7----|--------0--|------0----|--------------|--------3----|
g|-----------|------0----|----2------|-------0------|-------------|
d|-----------|----2------|--1--------|-----2--------|------5------|
a|-----------|--2--------|2----------|---2----------|----5--------|
e|-----------|0----------|-----------|0-------------|3------------|


e|5-------7-5|3--------5-3|
b|-----------|------------|
g|------5----|-------0----|
d|--0-4------|-----2------|
a|5----------|---2--------|
e|-----------|0-----------|
            
Submit corrections

comments powered by Disqus
↑ Back to top | Beethoven Ludwig Van Tabs for Fur Elise. Lyrics for acoustic guitar and electric guitar. Tablatures and chords are parodies/interpretations of the original songs. You may use it for private study, scholarship, research or language learning purposes only