>
 >
Jive Talkin'

Jive Talkin' Bass Tabs

Bee Gees - Jive Talkin' chords, tabs, tablatures, lyrics

Guitar lessons | Add/correct | Request | Top 50 tabs Artists:  A B C D E F G H I J K L M N O P Q R S T U V W X Y Z 0-9

Jive Talkin' Bass Tabs – Bee Gees

CD, Sheet music, Poster

Do you like Jive Talkin'? Share with your friends now
Bass TabsChords
                                 Jive Talkin'                                   


                                                                    The Bee Gees
Bass



     W                   W                   W                 
G||-------------------|-------------------|-------------------|
D||-------------------|-------------------|-------------------|
A||-------------------|-------------------|-------------------|
E||-------------------|-------------------|-------------------|
B||-------------------|-------------------|-------------------|


  S S Q    S S H           S S Q    S S H           S S Q    S S H         
------------------------|------------------------|------------------------|
------------------------|------------------------|------------------------|
------------------------|------------------------|------------------------|
------------------------|------------------------|------------------------|
--1-1------1-1----------|--1-1------1-1----------|--1-1------1-1----------|


  S S Q    S S H           S S Q    S S H           S S Q    S S H         
------------------------|------------------------|------------------------|
------------------------|------------------------|------------------------|
------------------------|------------------------|------------------------|
------------------------|------------------------|------------------------|
--1-1------1-1----------|--1-1------1-1----------|--1-1------1-1----------|


  S S Q    S S H           S S Q    S S H           S S Q    S S Q    S S E   
------------------------|------------------------|---------------------------|
------------------------|------------------------|---------------------------|
------------------------|------------------------|-----------3-3----------3--|
------------------------|------------------------|--------------------3-5----|
--1-1------1-1----------|--1-1------1-1----------|--1-1----------------------|


  S S E  Q    E  E  E  E     S S Q    S S Q    S S E   
--------------------------|---------------------------|
--------------------------|---------------------------|
--3-3---------------------|-----------3-3----------3--|
-----------------1--2--3--|--------------------3-5----|
--------------------------|--1-1----------------------|


  S S E  Q    E  E  E  E     S S Q    S S Q    S S E   
--------------------------|---------------------------|
--------------------------|---------------------------|
--3-3---------------------|-----------3-3----------3--|
-----------------1--2--3--|--------------------3-5----|
--------------------------|--1-1----------------------|


  S S E  Q    E  E  E  E     S S Q    S S Q    S S E     Q.     E  Q.     E   
--------------------------|---------------------------|----------------------|
--------------------------|---------------------------|----------------------|
--3-3---------------------|-----------3-3----------3--|--1------1--3------3--|
-----------------1--2--3--|--------------------3-5----|----------------------|
--------------------------|--1-1----------------------|----------------------|


  E.  S E  Q    E  E  E     E  E  E  E  E  E  E  E     Q    E  E  Q    E  E   
-------------------------|--------------------------|------------------------|
-------------------------|--------------------1--3--|------------------------|
------5---------0-----1--|-----2-----3-----3--------|------------------------|
--3-----3--1-------------|--------------------------|--0-------0--4-------4--|
-------------------------|--------------------------|------------------------|


  S E  S S E  S S E  S S E  S    E.  S E  Q    E  E  E   
------------------------------|-------------------------|
------------------------------|-------------------------|
--0-0--0----------------------|------5---------0-----1--|
---------3-3--3-1-1--1-0-0--0-|--3-----3--1-------------|
------------------------------|-------------------------|


  E  E  E  E  E  E  E  E     Q    E  E  Q    E  E     Q    E  E  E  E  E  E   
--------------------------|------------------------|-------------------------|
--------------------------|-------5----------3-----|--3----3-----------------|
-----2-----3-----6-----8--|--3-------3--1-------1--|-------------------0--3--|
--------------------------|------------------------|----------1--3--3--------|
--0-----1-----4-----6-----|------------------------|-------------------------|


  S S Q    S S Q    S S E     S S E  Q    E  E  E  E   
---------------------------|--------------------------|
---------------------------|--------------------------|
-----------3-3----------3--|--3-3---------------------|
--------------------3-5----|-----------------1--2--3--|
--1-1----------------------|--------------------------|


  S S Q    S S Q    S S E     S S E  Q    E  E  E  E   
---------------------------|--------------------------|
---------------------------|--------------------------|
-----------3-3----------3--|--3-3---------------------|
--------------------3-5----|-----------------1--2--3--|
--1-1----------------------|--------------------------|


  S S Q    S S Q    S S E     S S E  Q    E  E  E  E   
---------------------------|--------------------------|
---------------------------|--------------------------|
-----------3-3----------3--|--3-3---------------------|
--------------------3-5----|-----------------1--2--3--|
--1-1----------------------|--------------------------|


  S S Q    S S Q    S S E     Q.     E  Q.     E     Q    E  Q.      
---------------------------|----------------------|-----------------|
---------------------------|----------------------|-----------------|
-----------3-3----------3--|--1------1--3------3--|--3-------1------|
--------------------3-5----|----------------------|-----------------|
--1-1----------------------|----------------------|-----------------|


  E  E  E  E  E  E  E  E     Q    E  Q.        E  E  E  E  E  E  E  E   
--------------------------|-----------------|--------------------------|
--------------------------|-----------------|--------------------------|
--1--1--1--1--1--1--1--1--|--3-------1------|--1--1--1--1--1--1--1--1--|
--------------------------|-----------------|--------------------------|
--------------------------|-----------------|--------------------------|


  Q    E  Q.        E  E  E  E  E  E  E  E     E.  S E  Q    E  E  E   
-----------------|--------------------------|-------------------------|
-----------------|--------------------------|-------------------------|
--3-------1------|--1--1--1--1--1--1--1--1--|------5---------0-----1--|
-----------------|--------------------------|--3-----3--1-------------|
-----------------|--------------------------|-------------------------|


  E  E  E  E  E  E  E  E     Q    E  E  Q    E  E   
--------------------------|------------------------|
--------------------1--3--|------------------------|
-----2-----3-----3--------|------------------------|
--------------------------|--0-------0--4-------4--|
--------------------------|------------------------|


  S E  S S E  S S E  S S E  S    E.  S E  Q    E  E  E   
------------------------------|-------------------------|
------------------------------|-------------------------|
--0-0--0----------------------|------5---------0-----1--|
---------3-3--3-1-1--1-0-0--0-|--3-----3--1-------------|
------------------------------|-------------------------|


  E  E  E  E  E  E  E  E     Q    E  E  Q    E  E     Q    E  E  E  E  E  E   
--------------------------|------------------------|-------------------------|
--------------------------|-------5----------3-----|--3----3-----------------|
-----2-----3-----6-----8--|--3-------3--1-------1--|-------------------0--3--|
--------------------------|------------------------|----------1--3--3--------|
--0-----1-----4-----6-----|------------------------|-------------------------|


  W                   W                   W                   W                 
-------------------|-------------------|-------------------|-------------------|
-------------------|-------------------|-------------------|-------------------|
-------------------|-------------------|-------------------|-------------------|
-------------------|-------------------|-------------------|-------------------|
-------------------|-------------------|-------------------|-------------------|


  W                   W                   W                   W                 
-------------------|-------------------|-------------------|-------------------|
-------------------|-------------------|-------------------|-------------------|
-------------------|-------------------|-------------------|-------------------|
-------------------|-------------------|-------------------|-------------------|
-------------------|-------------------|-------------------|-------------------|


  S S Q    S S Q    S S E     S S E  Q    E  E  E  E   
---------------------------|--------------------------|
---------------------------|--------------------------|
-----------3-3----------3--|--3-3---------------------|
--------------------3-5----|-----------------1--2--3--|
--1-1----------------------|--------------------------|


  S S Q    S S Q    S S E     S S E  Q    E  E  E  E   
---------------------------|--------------------------|
---------------------------|--------------------------|
-----------3-3----------3--|--3-3---------------------|
--------------------3-5----|-----------------1--2--3--|
--1-1----------------------|--------------------------|


  S S Q    S S Q    S S E     S S E  Q    E  E  E  E   
---------------------------|--------------------------|
---------------------------|--------------------------|
-----------3-3----------3--|--3-3---------------------|
--------------------3-5----|-----------------1--2--3--|
--1-1----------------------|--------------------------|


  S S Q    S S Q    S S E     Q.     E  Q.     E     Q    E  Q.      
---------------------------|----------------------|-----------------|
---------------------------|----------------------|-----------------|
-----------3-3----------3--|--1------1--3------3--|--3-------1------|
--------------------3-5----|----------------------|-----------------|
--1-1----------------------|----------------------|-----------------|


  E  E  E  E  E  E  E  E     Q    E  Q.        E  E  E  E  E  E  E  E   
--------------------------|-----------------|--------------------------|
--------------------------|-----------------|--------------------------|
--1--1--1--1--1--1--1--1--|--3-------1------|--1--1--1--1--1--1--1--1--|
--------------------------|-----------------|--------------------------|
--------------------------|-----------------|--------------------------|


  Q    E  Q.        E  E  E  E  E  E  E  E                     
-----------------|--------------------------|-----|-----|-----|
-----------------|--------------------------|-----|-----|-----|
--3-------1------|--1--1--1--1--1--1--1--1--|-----|-----|-----|
-----------------|--------------------------|-----|-----|-----|
-----------------|--------------------------|-----|-----|-----|


  S S Q    S S Q    S S E     S S E  Q    E  E  E  E   
---------------------------|--------------------------|
---------------------------|--------------------------|
-----------3-3----------3--|--3-3---------------------|
--------------------3-5----|-----------------1--2--3--|
--1-1----------------------|--------------------------|


  S S Q    S S Q    S S E     S S E  Q    E  E  E  E   
---------------------------|--------------------------|
---------------------------|--------------------------|
-----------3-3----------3--|--3-3---------------------|
--------------------3-5----|-----------------1--2--3--|
--1-1----------------------|--------------------------|


  S S Q    S S Q    S S E     S S E  Q    E  E  E  E   
---------------------------|--------------------------|
---------------------------|--------------------------|
-----------3-3----------3--|--3-3---------------------|
--------------------3-5----|-----------------1--2--3--|
--1-1----------------------|--------------------------|


  S S Q    S S Q    S S E     Q.     E  Q.     E     S S Q    S S Q    S S E   
---------------------------|----------------------|---------------------------|
---------------------------|----------------------|---------------------------|
-----------3-3----------3--|--1------1--3------3--|-----------3-3----------3--|
--------------------3-5----|----------------------|--------------------3-5----|
--1-1----------------------|----------------------|--1-1----------------------|


  S S E  Q    E  E  E  E     S S Q    S S Q    S S E   
--------------------------|---------------------------|
--------------------------|---------------------------|
--3-3---------------------|-----------3-3----------3--|
-----------------1--2--3--|--------------------3-5----|
--------------------------|--1-1----------------------|


  S S E  Q    E  E  E  E     S S Q    S S Q    S S E   
--------------------------|---------------------------|
--------------------------|---------------------------|
--3-3---------------------|-----------3-3----------3--|
-----------------1--2--3--|--------------------3-5----|
--------------------------|--1-1----------------------|


  S S E  Q    E  E  E  E     S S Q    S S Q    S S E     Q.     E  Q.     E   
--------------------------|---------------------------|----------------------|
--------------------------|---------------------------|----------------------|
--3-3---------------------|-----------3-3----------3--|--1------1--3------3--|
-----------------1--2--3--|--------------------3-5----|----------------------|
--------------------------|--1-1----------------------|----------------------|


  S S Q    S S Q    S S E     Q.     E  Q.     E     S S Q    S S Q    S S E   
---------------------------|----------------------|---------------------------|
---------------------------|----------------------|---------------------------|
-----------3-3----------3--|--1------1--3------3--|-----------3-3----------3--|
--------------------3-5----|----------------------|--------------------3-5----|
--1-1----------------------|----------------------|--1-1----------------------|


  Q.     E  Q.     E     S S Q    S S Q    S S E     Q.     E  Q.     E   
----------------------|---------------------------|----------------------|
----------------------|---------------------------|----------------------|
--1------1--3------3--|-----------3-3----------3--|--1------1--3------3--|
----------------------|--------------------3-5----|----------------------|
----------------------|--1-1----------------------|----------------------|


  S S Q    S S Q    S S E     Q.     E  Q.     E     S S Q    S S Q    S S E   
---------------------------|----------------------|---------------------------|
---------------------------|----------------------|---------------------------|
-----------3-3----------3--|--1------1--3------3--|-----------3-3----------3--|
--------------------3-5----|----------------------|--------------------3-5----|
--1-1----------------------|----------------------|--1-1----------------------|


  Q.     E  Q.     E     S S Q    S S Q    S S E     Q.     E  Q.     E    
----------------------|---------------------------|----------------------||
----------------------|---------------------------|----------------------||
--1------1--3------3--|-----------3-3----------3--|--1------1--3------3--||
----------------------|--------------------3-5----|----------------------||
----------------------|--1-1----------------------|----------------------||




Duration Legend
---------------
W - whole
H - half
Q - quarter
E - 8th
S - 16th
T - 32nd
X - 64th
. - note dotted
|-n-|  - n-tuplets


Tablature Legend
----------------
L - tied note
x - dead note
g - grace note
(n) - ghost note
> - accentuded note
NH - natural harmonic
AH - artificial harmonic
TH - tapped harmonic
SH - semi harmonic
PH - pitch harmonic
h - hammer on
p - pull off
b - bend
br - bendRelease
pb - preBend
pbr - preBendRelease
brb - bendReleaseBend
\n/ - tremolo bar dip
\n - tremolo bar dive
-/n - tremolo bar Release up
/n\ - tremolo bar inverted dip
/n - tremolo bar return
-\n - tremolo bar Release down
S - shift slide
s - legato slide
/ -  slide into from below or out of upwards
\ -  slide into from above or out of downwards
~ - vibrato
W - wide vibrato
tr - trill
TP - tremolo picking
T - tapping
S - slap
P - pop
< - fade in
^ - brush up
v - brush down





Comments


Popular Bee Gees tabs & chords
For Whom The Bell Tolls Chords
How Deep Is Your Love 1 Chords
How Deep Is Your Love 4 Chords
How Deep Is Your Love 5 Chords
New York Mining Disaster Chords
Trafalgar Chords
Wedding Day Chords
You Win Again 1 Chords
All The Way Ukulele
Dont Forget To Remember Ukulele


Song lyrics



↑ Back to top | Tablatures and chords are parodies/interpretations of the original songs. You may use it for private study, scholarship, research or language learning purposes only
© 2014 AZChords.com Contact us | Privacy policy | DMCA | Add/correct tabs | Request tabs | Top 50 tabs