» » »

Bee Gees, Islands In The Stream Bass tabs (ver.2)

Artists:  A B C D E F G H I J K L M N O P Q R S T U V W X Y Z # 

Islands In The Stream Bass tabs (ver.2)

Bee Gees Tabs
 Rating:
4/5 (4 votes)
Islands In The Stream lessons Tabs too difficult? Try these video lessons and learn fast
                Bee Gees - Islands in the Stream




Intro

G|------------------------------------------|
D|--6-6-8-6---------3-------4-------6-------|
A|----------4-------------------------------|
E|------------------------------------------|


Verse

G|-----------------------------|-------------------------------|
D|-----------------------------|-----4-----3-4-----3-----------|
A|-4-----2-4-----2-4-----2-4---|---4-----4-----------4-----2-4-|
E|-----3-------3-------3-------|-3---------------3-------3-----|

G|---------------------------------|-------------------------------|
D|---------------------------------|-----4-----3-4-----3-----------|
A|---2-4-----2-4-----2-4-----2-4---|---4-----4-----------4-----2-4-|
E|-3-------3-------3-------3-------|-3---------------3-------3-----|


G|-----------------------------------------|-----------------------------|
D|-------3-4-----3-4-----3-7-----3-7-6-4-6-|-----------------------------|
A|---2-4-------4-------4-------4-----------|-4-----2-4-----2-4-----2-4---|
E|-3---------------------------------------|-----3-------3-------3-------|


Chorus

G|---------------------------------|---------------------------------|
D|-----------3-4---4-3-------3-----|---3-------3-4-----3-------------|
A|---2-4---4-----------6---4---6---|-4---4---4-----------4-----2-4---|
E|-3-------------------------------|-----------------3-------3-------|

G|----------------------------------------------|
D|-----4-----3----------3-------4-------6-------|
A|---4---------4--------------------------------|
E|-3-------3------------------------------------|


Verse

G|-----------------------------|-------------------------------|
D|-----------------------------|-----4-----3-4-----3-----------|
A|-4-----2-4-----2-4-----2-4---|---4-----4-----------4-----2-4-|
E|-----3-------3-------3-------|-3---------------3-------3-----|

G|---------------------------------|-------------------------------|
D|---------------------------------|-----4-----3-4-----3-----------|
A|---2-4-----2-4-----2-4-----2-4---|---4-----4-----------4-----2-4-|
E|-3-------3-------3-------3-------|-3---------------3-------3-----|

G|-----------------------------------------|-----------------------------|
D|-------3-4-----3-4-----3-7-----3-7-6-4-6-|-----------------------------|
A|---2-4-------4-------4-------4-----------|-4-----2-4-----2-4-----2-4---|
E|-3---------------------------------------|-----3-------3-------3-------|


Chorus

G|---------------------------------|---------------------------------|
D|-----------3-4---4-3-------3-----|---3-------3-4-----3-------------|
A|---2-4---4-----------6---4---6---|-4---4---4-----------4-----2-4---|
E|-3-------------------------------|-----------------3-------3-------|

G|----------------------------------------------|
D|-----4-----3----------3-------4-------6-------|
A|---4---------4--------------------------------|
E|-3-------3------------------------------------|


Outro

G|---------------------------------|
D|---------3-------4-------6-------|
A|-4-------------------------------|
E|---------------------------------|

G|-----------------------------|---------------------------------|
D|-------3-4---4-3-------3-----|---3-------3-4-----3-------------|
A|-4---4-----------6---4---6---|-4---4---4-----------4-----2-4---|
E|-----------------------------|-----------------3-------3-------|

G|----------------------------------------------|
D|-----4-----3----------3-------4-------6-------|
A|---4---------4--------------------------------|
E|-3-------3------------------------------------|

G|-----------------------------------|
D|---------3-------4-------6---------|
A|-4-------------------------------4-|
E|-----------------------------------|
            
Submit corrections

comments powered by Disqus
↑ Back to top | Bee Gees Bass for Islands In The Stream. Lyrics for acoustic guitar and electric guitar. Tablatures and chords are parodies/interpretations of the original songs. You may use it for private study, scholarship, research or language learning purposes only