» » »

How Deep Is Your Love Tabs (ver.2)

Artists:  A B C D E F G H I J K L M N O P Q R S T U V W X Y Z # 

How Deep Is Your Love Tabs (ver.2)

Bee Gees
Rating:
5/5 (14 votes)

Hard to play? Try these video lessons and learn fast.
                How deep is your love- Bee gees


Intro
Capo 3rd fret


Verse 1
|-------------------------0---------x--------------0---0--------3--------|
|---1--------1-----3--3-------1-----t---1--------1--------3-----3--------|
|---0-----0-------------------0-----a---0-----0-----------------5--------|
|-------2---------------------------p---------------------------5--------|
|---3--------------2----------0-----x---0-----------------------5--------|
|-----------------------------------x---------------------3-----3--------|
   eyes  in  the  morning     sun      .....kiss in the pouring rain

|-------------------------0-------------0--------------0------3-----------|
|---1--------1-----3--3-------1----1------1-----3-------------3-----------|
|---0-----0-------------------0--0----------0---0---0---------3-----------|
|-------2---------------------2-------------------------------5-----------|
|---3--------------2----------0-----------------2-------------5-----------|
|-------------------------------------------------------------3-----------|
   moment that you wander far from  me i want to feel... arms again


Pre-chorus
|--0-0-0-0---------------------0-0-0-0-------0----------------------|
|--1-1-1-1---------------------3-3-3-3-------1----------------------|
|--2-2-2-2-(Strumming pattern) 0-0-0-0-------0--(muck around with---|
|--3-3-3-3---------------------0-0-0-0-------0----different strum---|
|--0-0-0-0---------------------2-2-2-2-------0-----Patterns)--------|
|--0-0-0-0---------------------0-0-0-0-------0----------------------|
  You come  to  me  on   a summer breeze,   Keep me warm

|---0-0-0-0-------3-3-3-3---------------|
|---3-3-3-3-------3-3-3-3----------- ---|
|---0-0-0-0-------5-5-5-5---------------|
|---0-0-0-0-------5-5-5-5---------------|
|---2-2-2-2-------5-5-5-5---------------|
|---0-0-0-0-------3-3-3-3---------------|
  Its me you need to show


Chorus

C
How deep is your love
F                   G7
I really need to learn
           C                       G7-
Cause were living in a world of fools
            Am7
Breaking us down
            G7-              Am7
When they all should let us be
G                     C
We belong to you and me




Use these chords for the chorus

   C    F   G7   Am7   G7-
|--0----0----0----0-----0---------------------------------------|
|--1----1----3----1-----3---------------------------------------|
|--0----2----0----0-----0---------------------------------------|
|--2----3----2----2-----0---------------------------------------|
|--3----0----3----0-----2---------------------------------------|
|--0----0----0----0-----0---------------------------------------|
            
Hard to play? Try these video lessons and learn fast. | Correct




comments powered by Disqus
↑ Back to top | Tablatures and chords are parodies/interpretations of the original songs. You may use it for private study, scholarship, research or language learning purposes only