» » »

Bee Gees, How Deep Is Your Love Tabs (ver.1)

Artists:  A B C D E F G H I J K L M N O P Q R S T U V W X Y Z # 

How Deep Is Your Love Tabs (ver.1)

Bee Gees Tabs
 Rating:
4.2/5 (5 votes)
How Deep Is Your Love lessons Tabs too difficult? Try these video lessons and learn fast
                Verse
------------------2----------------------0---|
----0-2-2---0-2---2------2-3-3-3---2-3---0---|
--2---2---2-----2----3-4---------4-----4-----|
2--------------------------------------4-----|
------0-----0--------------2-------4---0-----|
----------------2--------------------------0-|


----0-0-0---0-2-0---------------------0------|
2-3-------2-------2-----0-2-3-3h5-2-0-0------|
----2---------------2-2----------------------|
---------------------------------------------|
----0-------4---------------2----------------|
----------------2---2---------------0---0----|


----2-2-2-5-7-4-----2-5-2---2-0---0----------|
----2-2-2---5-5-5-5-------5-----2---2-0------|
2-2-------------4----------------------------|
---------------------------------------------|
------------4---4-----2-----2----------------|
----------------------------------4---0------|


------0-2-5-9~-------------------------------|
--0-2---2------------------------------------|
2--------------------------------------------|
---------------------------------------------|
----4----------0-----------------------------|
---------------------------------------------|


Chorus
9-9-9-9-----5-4-2---5-4-2-------------0------|
7-7-7-7---5-------5-------------2-3-0-0------|
7-7-7-7-----------------------2--------------|
--------------------------0-4---0------------|
--------0---------0-----0--------------------|
------------------------------------0--------|


----0-0-0---0-2-0---0-2-3-0-0----------------|
2-3-2-2-2-2-2-2-2-2-0-0-0-0------------------|
----2-2-2---2-2-2-2--------------------------|
---------------------------------------------|
--------------------2-----4------------------|
---------------------------------------------|


0-2-3-3-2-0--------0-1-1-0-------------------|
0-----------3-3--3---------3-2---------------|
---------------------------------------------|
---------------------0---0-------------------|
----0---0---2----------------0---------------|
---------------------------------------------|
            
Submit corrections

comments powered by Disqus
↑ Back to top | Bee Gees Tabs for How Deep Is Your Love. Lyrics for acoustic guitar and electric guitar. Tablatures and chords are parodies/interpretations of the original songs. You may use it for private study, scholarship, research or language learning purposes only