>
 >
Walk With Me 2

Walk With Me 2 Guitar Tabs

Bedlight For Blue Eyes - Walk With Me 2 chords, tabs, tablatures, lyrics

Guitar lessons | Add/correct | Request | Top 50 tabs Artists:  A B C D E F G H I J K L M N O P Q R S T U V W X Y Z 0-9

Walk With Me 2 Guitar Tabs – Bedlight For Blue Eyes

CD, Sheet music, Poster

Do you like Walk With Me 2? Share with your friends now
ChordsChords v2TabsTabs v2Ukulele
walk with me solo

e-----------------------------------------|
b-----------------------------------------|
g---7---9---11--14------------------------| 2x
d---X---X---X---X-------------------------|
a---5---7---9---12------------------------|
e-----------------------------------------|


e---------------------------------------------------------------|
b-----10----10--------------------------------------------------|
g--9b----9b----9~--9--------------------------------------------|
d--------------------12-11-9-7b-7-----7----9b-9p7---7--7-9-12---|
a---------------------------------5h7---7---------9-------------|
e---------------------------------------------------------------|

e---------------------------------------------------|
b-------------------12b-10~------10-12-10----10-----|
g------------9-11-9-12b-----9-11----------11----11--|
d--11------9----------------------------------------|
a-----9-12------------------------------------------|
e---------------------------------------------------|


e-----------------------------------------|
b-----10-----12-----10-----12-12-10-9-11--|
g---9------9------9------9----------------|
d-9------9------9------9------------------|
a-----------------------------------------|
e-----------------------------------------|

e-----------------------------------------------|
b--14-14-12-12----------------------------------|
g--------------14-14-12-14----9---9-11-11-14----|
d---------------------------9---9---------------|
a-----------------------------------------------|
e-----------------------------------------------|

e-----------------------------------------------|
b--14-14-12-12----------------------------------|
g--------------14-14-12-14----9---9-11-11-14----|
d---------------------------9---9---------------|
a-----------------------------------------------|
e-----------------------------------------------|

e-----------------------12-14-12-14-15-17-17b-17~----|
b-----------12-14-12-14------------------------------|
g--14-12-14------------------------------------------|
d----------------------------------------------------|
a----------------------------------------------------|
e----------------------------------------------------|





Comments


Popular Bedlight For Blue Eyes tabs & chords
The City And The Ghost Chords
Walk With Me 2 Chords
Broken Door Tabs
Ephemeral Addictions Tabs
Ephemeral Addictions 1 Tabs
Ephemeral Addictions Intro Tabs
Jumper Intro Tabs
Michael Tabs
Too Late For Us Tabs
The City And The Ghost Ukulele


Song lyrics



↑ Back to top | Tablatures and chords are parodies/interpretations of the original songs. You may use it for private study, scholarship, research or language learning purposes only
© 2014 AZChords.com Contact us | Privacy policy | DMCA | Add/correct tabs | Request tabs | Top 50 tabs