>
 >
Michael

Michael Guitar Tabs

Bedlight For Blue Eyes - Michael chords, tabs, tablatures, lyrics

Guitar lessons | Add/correct | Request | Top 50 tabs Artists:  A B C D E F G H I J K L M N O P Q R S T U V W X Y Z 0-9

Michael Guitar Tabs – Bedlight For Blue Eyes

CD, Sheet music, Poster

Do you like Michael? Share with your friends now
Tabs


Chords:

     G  Cadd9  G*   D    C   G6   Am  Dsus2  Dsus4  D5  Em    D*
 
E||--3----3----3----2----0----0----0----0------3----5----0----2--|
B||--3----3----3----3----1----3----1----3------3----3----0----3--|
G||--0----0----0----2----0----0----2----2------2----2----0----2--|
D||--0----2----0----0----2----0----2----0------0----0----2----0--|
A||--2----3----2---------3----2----0---------------------2----x--|
E||--3---------------------------------------------------0----2--|


Intro:

     Q    E  E  Q       Q    E   E  Q       Q    E  E  E  E   
E||--3---------------|-------------------|----------3--------|
B||----------3-------|--3----------------|--3----------3-----|
G||-------------0----|--------------0----|----------------0--|
D||------------------|-------0h--2-------|-------0-----------|
A||-------2----------|--3----------------|--2----------------|
E||--3---------------|-------------------|-------------------|


  Q    E   E  E  E     Q    E  E  E  E     Q    E  E  E  E   
--2----3p--2--------|----------0--------|----------0--------|
--------------3-----|--1----------1-----|--3----------3-----|
-----------------2--|----------------0--|----------------0--|
--0-----------------|-------2-----------|-------0-----------|
--------------------|--3----------------|--2----------------|
--------------------|-------------------|-------------------|


  H        Q       Q    Q    Q      
----------------|--5----3----2----||
--1--------L----|--5----3----3----||
----------------|-----------------||
----------------|-----------------||
--0--------L----|-----------------||
----------------|-----------------||


Verse 1:

G                  Cadd9 
  Got the news the other day
  G*      D         C      G6
A child's innocence taken away
 Am                          D
(You were never scared, I'll always care)
G           Cadd9     G*           D             C     G6   Am   Dsus2
Grandson to son and a memory we'll never lose in time


Prechorus:
   
   Am  C         G         G
Am I  ... making you proud of me?
       Am  C       D   Dsus4  D    D5
'Cause I  ... know you can    hear me


Chorus:

Em           C          G               D
You were too young, too fast for you to go
        Em      C          G    D
And now I don't understand why
Em      C                G          D*     C
I can't stand to watch a mother and father cry
             D
I look up to you


(Play Intro)


Verse 2:

G               Cadd9           G*           D             C    G6
Four years your younger brother caused me to always wonder why
                  Am        D
(If it's the only way, I'll talk to you)
G           Cadd9   G*               D
Home is not home, I swear I'll still see you
C     G6       Am     Dsus2
I ... miss ... you


Prechorus 2:

   Am  C         G         G
Am I  ... making you proud of me?
       Am  C       D   Dsus4  D    D5
'Cause I  ... know you can    hear this


(Play Chorus)

(Play Intro)

(Play Chorus x3)


Tablature Legend
----------------
L - tied note
h - hammer on
p - pull off

Duration Legend
---------------
H - half
Q - quarter
E - 8th





Comments


Popular Bedlight For Blue Eyes tabs & chords
The City And The Ghost Chords
Walk With Me 2 Chords
Broken Door Tabs
Ephemeral Addictions 1 Tabs
Jumper Tabs
Jumper Intro Tabs
Too Late For Us Tabs
Walk With Me Tabs
Walk With Me 2 Tabs
The City And The Ghost Ukulele


Song lyrics



↑ Back to top | Tablatures and chords are parodies/interpretations of the original songs. You may use it for private study, scholarship, research or language learning purposes only
© 2014 AZChords.com Contact us | Privacy policy | DMCA | Add/correct tabs | Request tabs | Top 50 tabs