» » »

Bedlight For Blue Eyes, Dig On This Tabs (ver.1)

Artists:  A B C D E F G H I J K L M N O P Q R S T U V W X Y Z # 

Dig On This Tabs (ver.1)

Bedlight For Blue Eyes Tabs
Rating:
0/5 (0 votes)
Dig On This lessons Tabs too difficult? Try these video lessons and learn fast
                (Intro)
DIG ON THIS
By; Bedlight For Blueeyes


This is for only one guitar…I know the intros not perfect, but it sounds reasonable. I 
add on with the chorus and such...thankx

Intro
E|-----2---5---2--------2---5---2---------2--5----2-5----2-5------|
B|---3---3---3---3----3---3---3---3-----3-------3------3----------|
G|------------------------------------0---------------------------|
D|-0----------------0----------------------------------------------|
A|----------------------------------------------------------------|
D|----------------------------------------------------------------|

E|-----2---5---2--------2---5---2---------2--5----2-5----------------|
B|---3---3---3---3----3---3---3---3-----3-------3------3-------------|
G|------------------------------------0------------------------------|
D|-0----------------0------------------------------------------------|
A|---------------------------------------------------------0-0-0-----|
D|---------------------------------------------------------0-0-0-----|

E|--------------------------------10b------------|
B|-----------8-10-8-7-8-7-5-7-5-3----------------|
G|------14*--------------------------------------|
D|-?---------------------------------------------|
A|-?---------------------------------------------|
D|-----------------------------------------------|

E|-19-17-14-15-14-12-14--------12h13h12--------191715-171514-151412-151714--|
B|----------------------101215----------15-10-----------------------------15|
G|--------------------------------------------------------------------------|
D|--------------------------------------------------------------------------|
A|--------------------------------------------------------------------------|
D|--------------------------------------------------------------------------|

E|-12-14-15-14-15-17-19-17-------------19-17-14-15-14-12-14-----------------|
B|-------------------------19-15-17-19----------------------15-17-15--------|
G|--------------------------------------------------------------------------|
D|--------------------------------------------------------------------------|
A|--------------------------------------------------------------------------|
D|--------------------------------------------------------------------------|


(2:56)

E|------------2-3-2---2h3h2h3-5------------12tr13-14tr15—15tr17—19----------|
B|------------------3-------------------------------------------------------|
G|--------------------------------------------------------------------------|
D|-44444---4-----------------------555555-----------------------------------|
A|-22222-0-2-----------------------555555-----------------------------------|
D|---------------------------------555555-----------------------------------|

E|-----------------------------------------------------------|
B|-----------------------------------------------------------|
G|-----------------------------------------------------------|
D|--44444---4--4h5p4---4-5-7--------5555---000--44-----------|
A|--22222-0-2--------5--------------5555---000--44-----------|
D|----------------------------------5555---000--44-----------|

E|------------2-3-2---2h3h2h3-5------------12tr13-14tr15—15tr17—19----------|
B|------------------3-------------------------------------------------------|
G|--------------------------------------------------------------------------|
D|-44444---4-----------------------555555-----------------------------------|
A|-22222-0-2-----------------------555555-----------------------------------|
D|---------------------------------555555-----------------------------------|

E|--------------------------------------------------------------------------|
B|--------------------------------------------------------------------------|
G|--------------------------------------------------------------------------|
D|--44444---4--4h5p4---4-5-7------5555---000--44--4--5----------------------|
A|--22222-0-2--------5------------5555---000--44--2--5---4-5-4--4-5-4-7-9-4-|
D|--------------------------------5555---000--44-----5----------------------|
            
Submit corrections

comments powered by Disqus
↑ Back to top | Bedlight For Blue Eyes Tabs for Dig On This. Lyrics for acoustic guitar and electric guitar. Tablatures and chords are parodies/interpretations of the original songs. You may use it for private study, scholarship, research or language learning purposes only