» » »

Beck, Everybodys Got To Learn Sometime Tabs (ver.6)

Artists:  A B C D E F G H I J K L M N O P Q R S T U V W X Y Z # 

Everybodys Got To Learn Sometime Tabs (ver.6)

Beck Tabs
Rating:
0/5 (0 votes)
Everybodys Got To Learn Sometime lessons Tabs too difficult? Try these video lessons and learn fast
                Seriously haven't seen a correct version anywhere, so here it is. 
I've seen others say the same thing and still not be correct. 
Hopefully this will put an end to that.

Verse and Intro... (You can add the bass note on each chord if you want)

      Gm  Gm7  Gm/E  Cm7
E|----x----x----x----x| 
B|----3----3----3----1|
G|----3----3----3----3|
D|----5----3----2----1|
A|----x----x----x----x|
E|----x----x----x----x|


Gm                   Gm7 Gm/E   Cm7
      Change your heart
       Gm            Gm7 Gm/E   Cm7      
Look around you

Gm                   Gm7 Gm/E   Cm7
      Change your heart
          Gm         Gm7 Gm/E   Cm7      
It will astound you

Gm                 D
I need your lovin'
            Cm7 (normal fingering)
Like the sunshine

      F     F/Eb
E|----x-----x-| 
B|----10----10|
G|----10----10|
D|----10----10|
A|----8-----6-|
E|----x-----x-|

Chorus
     Dm7                       EbM7  Am7
E|----x-------------------------x-----8| 
B|----6-------------------------8-----5|
G|----5-------------------------7-----5|
D|----7-------------------------8-----5|
A|----5-------------------------6-----7|
E|----x-------------------------x-----5|
      Everybody's gotta learn sometime
      Everybody's gotta learn sometime
      
     Dm7                       Eb     F
E|----x-------------------------x-----x-| 
B|----6-------------------------8-----10|
G|----5-------------------------8-----10|
D|----7-------------------------8-----10|
A|----5-------------------------6-----8-|
E|----x-------------------------x-----x-|
      Everybody's gotta learn sometime


hmm hmm hmm

     Bb5   Bbb5
E|----x-----x-| 
B|----x-----x-|
G|----3-----3-|
D|----3-----2-|
A|----1-----1-|
E|----x-----x-|


And Repeat....

Change your heart
Look around you
Change your heart
Will astound you
I need your lovin'
Like the sunshine

Everybody's gotta learn sometime
Everybody's gotta learn sometime
Everybody's gotta learn sometime

I need your lovin'
Like the sunshine

Everybody's gotta learn sometime
Everybody's gotta learn sometime

Everybody's gotta learn sometime
Everybody's gotta learn sometime
Everybody's gotta learn sometime

Everybody's gotta learn sometime
Everybody's gotta learn sometime
Everybody's gotta learn sometime
            

comments powered by Disqus
↑ Back to top | Beck Tabs for Everybodys Got To Learn Sometime. Lyrics for acoustic guitar and electric guitar. Tablatures and chords are parodies/interpretations of the original songs. You may use it for private study, scholarship, research or language learning purposes only