>
 >
Wish

Wish Guitar Tabs

Beautiful Creatures - Wish chords, tabs, tablatures, lyrics

Guitar lessons | Add/correct | Request | Top 50 tabs Artists:  A B C D E F G H I J K L M N O P Q R S T U V W X Y Z 0-9

Wish Guitar Tabs – Beautiful Creatures

CD, Sheet music, Poster

Do you like Wish? Share with your friends now
Tabs
"Wish" 


Tuning- Drop down 1/2 step. Eb Ab Db Gb Bb eb 
Listen to song for timing.

I did this song by memory. But Im SURE its really really accurate
 

intro: Finger picked

           Tied
|------------------|---------------------|--------------------|
|------------------|---------------------|--------------------|
|----0-----2--2----|--4b--4-----4--------|----0----2----4b----|
|----0-----0--0----|--0---------0------2-|----2----2----2---4-|
|------------------|---------------------|--------------------|
|-3-----3--------3-|---------3------0--2-|-0-----0----0-------|

      Tied        *         Tied     *         Tied 
|---------------|------------------|----------------------|
|-------------3-|----0h1----1--1---|-3p1----1--1--1--0----|
|----0--0-------|----0------0--0---|-0---------0--0-----0-|
|----2--2-------|------------------|----------------------|
|-------------2-|-3------3-------3-|-3----3------3------3-|
|-0-------0-----|------------------|----------------------|
                  
            Tied
|--------------------|----------|
|----0------1--1-----|-------3--|
|----0------2--2-----|---2---3b-|
|-0-----0----------0-|---4------|
|--------------------|----------|
|--------------------|----------| This is played once without the vocals 
                                  then its repeated with them.
This is Finger picked as well.

0:40
Sumtimes pretty aint pretty at all........

        Tied               Tied             Tied
|-3-----2--2-------|-0-----2--2------|-3----2--2-----|
|----3--------3----|----3--------3---|----3------3---|
|----------------0-|---------------0-|-------------0-|
|------------------|-----------------|---------------|
|-3----------------|-3---------------|-2-------------|
|------------------|-----------------|---------------|
        Tied                 Tied              Tied
|-0-----2--2-------|-3-------2--2------|-0-----2--2------|
|----3--------3----|-----3---------3---|----3--------3---|
|----------------0-|-----------------0-|---------------0-|
|------------------|-------------------|-----------------|
|-2----------------|-0-----------------|-0---------------|
|------------------|-------------------|-----------------|

 ~~~~~~~~Tied~~~~~~~~~~~
|-----------|-----------|
|-1---------|-----1-----|
|-----------|-----------|
|-----------|-----------|
|-0---------|-----0-----|
|-----------|-----------|
              ...............Ima Junkie For ya......

Chorus: Power chords

YEAHHHHH!!!
 G Type 1 on 3rd                  E type 2 on 7th
|-----------------|--------------|----------------|--------------|
|-----------------|--------------|----------------|--------------|
|-----------------|--------------|----------------|--------------|
|--|--|--|---|----|--|--|---|--|-|--|---|---|---|-|--|--|--|--|--|
|-----------------|--------------|----------------|--------------|
|-----------------|--------------|----------------|--------------|

  C type 2 on 3rd                    D type 2 on 5th  
|-----------------|----------------|-----------------|----------------|
|-----------------|----------------|-----------------|----------------|
|-----------------|----------------|-----------------|----------------|
|-|---|---|---|---|-|---|---|---|--|--|---|---|---|--|--|---|---|---|-|
|-----------------|----------------|-----------------|----------------|
|-----------------|----------------|-----------------|----------------|
You can either play the following as power chords, or full chords. Your call.

Have you ever seen the devil at night.....

  em            f#m            G  
|-------------|--------------|---------------|--------------|
|-------------|--------------|---------------|--------------|
|-------------|--------------|---------------|--------------|
|-|--|--|--|--|--|--|--|--|--|--|--|---|--|--|--|--|--|--|--|
|-------------|--------------|---------------|--------------|
|-------------|--------------|---------------|--------------|

 C                             D
|-------------|--------------|-------------|--------------|
|-------------|--------------|-------------|--------------|
|-------------|--------------|-------------|--------------|
|-|--|--|--|--|--|--|--|--|--|--|--|--|--|-|-|--|--|--|---|
|-------------|--------------|-------------|--------------|
|-------------|--------------|-------------|--------------|


There ya go. The rest is pretty easy to figure out. Like the slide on the 6th
string when joe's singin " i wish i could fly".

The solo is in The G penatonic. I dont have time myself to tab it all out. So you can 
take a crack at it.

But this is the whole song with varitions.

and the outro. " Dont you know that im tryin to get to you"
They are using octaves on the 5th and 3rd strings. Pretty easy to figure out 
so i didnt tab it. It sounds bad anyways without the other parts playing.
b - Bend
p - Pull off
h - hammer on
* - Those are kinda tricky parts you really need to 
listen to the song.Its the pull offs that make the sound. 
Tied - Dont pick the second note. Ex Where theres 2--2..
Pick only the first 2.

-Storm





Comments


Popular Beautiful Creatures tabs & chords
Ride 1 Bass Tabs
Step Back 1 Bass Tabs
Time And Time Again Chords
1 Am Intro Tabs
Kickout Tabs
Ride Tabs
Step Back Tabs
Wasted (Solo) Tabs


Song lyrics



↑ Back to top | Tablatures and chords are parodies/interpretations of the original songs. You may use it for private study, scholarship, research or language learning purposes only
© 2014 AZChords.com Contact us | Privacy policy | DMCA | Add/correct tabs | Request tabs | Top 50 tabs