>
 >
Kickout

Kickout Guitar Tabs

Beautiful Creatures - Kickout chords, tabs, tablatures, lyrics

Guitar lessons | Add/correct | Request | Top 50 tabs Artists:  A B C D E F G H I J K L M N O P Q R S T U V W X Y Z 0-9

Kickout Guitar Tabs – Beautiful Creatures

CD, Sheet music, Poster

Do you like Kickout? Share with your friends now
Tabs

|--------------------------------------------------------|
|--------------------------------------------------------|
|--------------------------------------------------------|  Play 2X
|--------------------------------------------------------|
|-2-----2-----4---2-----2----------2-----2-----4---2-----|
|---4-4---4-4---4---4-4---4-4-2-3----4-4---4-4---4---4-4-|

|---------------------------------|
|---------------------------------|
|---------------------------------|
|---------------------------------|
|-2-----4-----2-----4-----2-------|
|---4-4---4-4---4-4---4-4---4-2-3-|

|---------------------------------|            |--------|
|---------------------------------|            |--------|
|---------------------------------|   Play 4X  |--------|
|---------------------------------|            |---6----|
|-2-----2-----4---2-----2---------|            |---6----|
|---4-4---4-4---4---4-4---4-4-2-3-|            |---4----|

|------------------------------------|
|------------------------------------|
|------------------------------------|   Play 3X
|----------------------------------6-|
|-2-----2-----4---2-----2----------6-|
|---4-4---4-4---4---4-4---4-4-2-3--4-|

E|---------------------------------------------------|
B|---------------------------------------------------|
G|-----------------6----6--6--6-6--------------------|
D|-6---------4-----6----6--6--6-6---6--6--6--6--6-6--|
A|-6---------4-----4----4--4--4-4---6--6--6--6--6-6--|
E|-4---------2----------------------4--4--4--4--4-4--|


(1st solo)
E|----4-4----4-4----4----4-------------4-------4--------------|
B|----4-4----4-4----4----4------------------------------------|
G|-6b-----6b-----6b---6b---6bp4-6---6b---6-4-6---6-4-6b-4-----|
D|---------------------------------------------------------6--|
A|------------------------------------------------------------|
E|------------------------------------------------------------|

E|------------------------------/16\--------------|
B|------------------------------------/14\--/12\--|
G|-6-4-4-6-4-4-6-4-6-4----------------------------|
D|---------------------6-4-6----------------------|
A|------------------------------------------------|
E|------------------------------------------------|

(2nd Solo)

E|----6-6----6-6----6----6-6----6-6----6---66--66--66--66---------|
B|----6-6----6-6----6----6-6----6-6----6---66--66--66--66---------|
G|-8b-----8b-----8b---8b-----8b-----8b---8b--8b--8b--8b---8b-6----|
D|-------------------------------------------------------------8--|
A|----------------------------------------------------------------|
E|----------------------------------------------------------------|

E|----6----6------------------------------------------------|
B|-8b---8b---8-6--------------------------------------------|
G|---------------8--6--8--6--8-6-8-6--8--6--8--6--8-6-------|
D|----------------------------------------------------8-6-8-|
A|----------------------------------------------------------|
E|----------------------------------------------------------|

E|-11-8-----------------------------------------------8-----------------|
B|------11-8------------------------------------------------------------|
G|-----------10-8---------8---------8------10B-8----8---10-8-10b-8----8-|
D|----------------10-8-10---10-8-10---10-8-------10----------------10---|
A|----------------------------------------------------------------------|
E|----------------------------------------------------------------------|

E|-----11-11-----11-11-----11-11-----11-11-----11-11-----11-11----11-11-|
B|-14b-------14b-------14b-------14b-------14b-------14b-------14-------|
G|----------------------------------------------------------------------|
D|----------------------------------------------------------------------|
A|----------------------------------------------------------------------|
E|----------------------------------------------------------------------|

E|-----11-11-----11-11-----11-11-----11-11-----11-11-----11-11--14b-b-b-|
B|-14b-------14b-------14b-------14b-------14b-------14b----------------|
G|----------------------------------------------------------------------|
D|----------------------------------------------------------------------|
A|----------------------------------------------------------------------|
E|----------------------------------------------------------------------|





Comments


Popular Beautiful Creatures tabs & chords
Ride 1 Bass Tabs
Step Back 1 Bass Tabs
Time And Time Again Chords
1 Am Intro Tabs
Ride Tabs
Step Back Tabs
Wasted (Solo) Tabs
Wish Tabs


Song lyrics



↑ Back to top | Tablatures and chords are parodies/interpretations of the original songs. You may use it for private study, scholarship, research or language learning purposes only
© 2014 AZChords.com Contact us | Privacy policy | DMCA | Add/correct tabs | Request tabs | Top 50 tabs