» » »

Beatles, Yesterday The Right Way Tabs (ver.1)

Artists:  A B C D E F G H I J K L M N O P Q R S T U V W X Y Z # 

Yesterday The Right Way Tabs (ver.1)

Beatles Tabs
 Rating:
4/5 (4 votes)
Yesterday The Right Way lessons Tabs too difficult? Try these video lessons and learn fast
                Beatles - Yesterday

Tune your guitar 1 whole step down!
Use finger strumming, do not use a pick to play this.
Pluck the bass strings with your thumb, while strumming the high-pitched strings with your index, middle, and ring fingers.
This is about as close to perfect as you will find anywhere. (Listen to the song for rhythm.)


    Verse
||----3-3-3---3-3-----2-2-2---2-2-2----0-0-0---0---0---0-0-0---2-2-2---|
||o---3-3-3---3-3-----2-2-2---0-0-0----0-0-0---0---0---0-0-0---1-1-1---|
||----0-0-0---0-0-----2-2-2---2-2-2----0-0-0---0---0---0-0-0---2-2-2---|
||-----------------------------------2-------2---0-----------0---------|
||o-------------------------2------------------------3-----------------|
||--3-------3-----0-2--------------------------------------------------|

					      Bridge begins here
|---3-3-3---3---3---0-3------------3--3--3-3-3---2-2-2---2-2-2-0-2-|
|---3-3-3---3---3---0-0----2-2--1--3--3--3-3-3---2-2-2---0-0-0-----|
|---0-0-0---0---0---0-0----2-2-----------0-0-0---2-2-2---2-2-2-----|
|--------------------------2-2---------------------------------2-0-|
|------------------------0------3----------------------2-----------|
|-3-------3---2---0----------------3--3--------2-------------------|


|-3--2-0---2-2-2---2-2-2---3-3-3---3-3-3---2-2-2---2-2-2-0--2--3--2-|
|----------1-1-1---1-1-1-3-3-3-3---3-3-3---2-2-2---0-0-0------------|
|----------2-2-2---2-2-2---0-0-0---0-0-0---2-2-2---2-2-2------------|
|----------------0---------------------------------------2--0-------|
|-3--2---0---------------------------------------2-------------3--2-|
|------------------------3-------3-------2--------------------------|

					Final verse
|-0---2-2-2---2-2-2---3-3-3---3-3-3--||-3-3-3-3---3-3-----0-0-0---2-2-2--|
|-----1-1-1---1-1-1---3-3-3---3-3-3-o||-3-3-3-3---3-3-----2-2-2---0-0-0--|
|-----2-2-2---2-2-2---0-0-0---0-0-0--||-0-0-0-0---0-0-----2-2-2---2-2-2--|
|-----------0------------------------||----------------------------------|
|---0-------------------------------o||-------------------------2--------|
|-------------------3-------3--------||---------3-----0-2----------------|


|---0-0-0---0---0---0-0-0---2-2-2---3-3-3---3---3---0-3-------------|
|---0-0-0---0---0---0-0-0---1-1-1---3-3-3---3---3---0-0----2-2--1---|
|---0-0-0---0---0---0-0-0---2-2-2---0-0-0---0---0---0-0----2-2------|
|-2-------2---0-----------0--------------------------------2-2------|
|-----------------3--------------------------------------0------3---|
|---------------------------------3-------3---2---0-----------------|

       Outro
|-3-3--3-3-3-3---3-3-3---3-3-3--3-3-3-3----|
|-3-3--3-3-3-3---3-3-2---2-2-1--0h3-0h3----|
|------0-0-0-0-0-0-0-0-0-0-0-0--0-0-0-0----|
|------------------------------------------|
|------------------------------------------|
|-3-3--------------------------------------|

enjoy.


**********************************************************************************
            
Submit corrections

comments powered by Disqus
↑ Back to top | Beatles Tabs for Yesterday The Right Way. Lyrics for acoustic guitar and electric guitar. Tablatures and chords are parodies/interpretations of the original songs. You may use it for private study, scholarship, research or language learning purposes only