» » »

Yesterday Tabs (ver.5)

Artists:  A B C D E F G H I J K L M N O P Q R S T U V W X Y Z # 

Yesterday Tabs (ver.5)

Beatles
Rating:
0/5 (0 votes)

Hard to play? Try these video lessons and learn fast.
                (Correct)
This is my version of the song yesterday by the beatles, which it
sound really well. Hope that this will help you out alot if you are 
trying to learn it.

Repeat this twice
Riff 1
--------3-3-----------0-2-3--2-0-0-------0-0-------------------------------|
--------0-0--0--0-2-4--------0-0-0-------1---3-1-0---1-0-0-----0-----------|
--3-0-0-0-0--3---------------0-0-0-------0---------2-0-0-0-2-0---2-2-0-0-0-|
--------0-0--2---------------0-0-2--0----2-------------------2---2-2-2---0-|
-------------3------------------------3--3---------------------------3---2-|
yesteday
suddenly

Riff 2
--0-0-0-2-3-2-0-2-0---0---3--3--3--3--0-0-0-2-3-2-0-2-0---2-3-------|
--0-0-0---------1---3---0-0--0--0--0--0-0-0---------1---3---0-3-1-0-|
--2-2-0---------2-------0-0--0--0--0--2-2-0---------2-------0-------|
--2-1-2-------------------0--0--0--0--2-1-2-------------------------|
why she had

Now repeat Riff 1 once


Outro
---------------3--|
-----0---------3--|
---0---2-2-0-0-0--|
-------2-2-2---0--|
-----------3---2--|
---------------3--|

This is a really great song to learn and it is pretty easy to learn 
too.
Davy S.
            
Hard to play? Try these video lessons and learn fast. | Correct




comments powered by Disqus
↑ Back to top | Tablatures and chords are parodies/interpretations of the original songs. You may use it for private study, scholarship, research or language learning purposes only