>
 >
Yesterday Complete

Yesterday Complete Guitar Tabs

Beatles - Yesterday Complete chords, tabs, tablatures, lyrics

Guitar lessons | Add/correct | Request | Top 50 tabs Artists:  A B C D E F G H I J K L M N O P Q R S T U V W X Y Z 0-9

Yesterday Complete Guitar Tabs – Beatles

CD, Sheet music, Poster

Do you like Yesterday Complete? Share with your friends now
Tabs
Yesterday Beatles

Play order:
intro
verse 1
verse 2
bridge
verse 3
outtro

Intro
    G                   A/C#                 C         G
E |----------------------------------------|----------------------------------------|
B |-----------0----------------------------|-----------0----0-----------------------|
G |-0-------------------2------------------|-0--------------------------------------|
D |-0-----------------------------2--------|-------------------------------0--------|
A |---------------------4------------------|-3--------------------------------------|
E |----------------------------------------|-----------3----3-----------------------|
    1    +    2    +    3    +    4    +     1    +    2    +    3    +    4    +

Verse
  G                                        F#m11               B
|----------------------------------------|--------------------------0----2----3---|
|------------------------------------0---|-----------0----2----4------------------|
|-2----0----0-------------------0--------|-----------2----------------------------|
|--------------------------0-------------|-----------2----------------------------|
|----------------------------------------|---------------------2------------------|
|-3-------------------3------------------|-2--------------------------------------|
  1    +    2    +    3    +    4    +     1    +    2    +    3    +    4    +
1 Yes  ter  day,                                     all  my   trou bles seemed so
2 Sud  den  ly,                                      Im   not  half the  man  I
3 Yes  ter  day,                                     love was  such an   eas  y

  Em                                       C                   D
|-2---------0----0---------0--------0----|-----------0----0-----------------------|
|-----------0----0---------0--------0----|---------------------3----1----0--------|
|----------------------------------------|-----------0------------------------2---|
|---------------------2---------0--------|---------------------0------------------|
|----------------------------------------|-3--------------------------------------|
|-0--------------------------------------|----------------------------------------|
  1    +    2    +    3    +    4    +     1    +    2    +    3    +    4    +
 far        a    way.                                Now  it   looks as though they're
 used       to   be.                                 Theres a  sha  dow  hang ing
 game       to   play.                               Now  I    need a   place to


  G                             D#/F       Em                  A
|----------------------------------------|----------------------------------------|
|-1---------0----0-----------------------|-----------0----------------------------|
|-----------0----0--------------2--------|-0-------------------2------------------|
|----------------------------------------|---------------------2---------2--------|
|----------------------------------------|---------------------0------------------|
|-3-------------------3---------2--------|-0--------------------------------------|
  1    +    2    +    3    +    4    +     1    +    2    +    3    +    4    +
  here      to   stay.          Oh,        I         be        lieve     in
  o         ver  me.            Oh,        yes       ter       day       came
  hide      a    way.           Oh,        I         be        lieve     in


|----------------------------------------|
|-----------0----0-------------------0---|
|-0-----------------------------0--------|
|--------------------------0-------------|
|-3--------------------------------------|
|-----------3----3-----------------------|
  1    +    2    +    3    +    4    +
 
  yes       ter  day.
  sud       den  ly.
  yes       ter  day.

Bridge
  F#m11               B7                   Em        D         C         Em
|----------------------------------------|-0---------2---------3---------2----0---|
|-0-------------------0------------------|----------------------------------------|
|-2----------------------------------2---|----------------------------------------|
|-----------2-------------------1--------|-2---------0----------------------------|
|---------------------2------------------|---------------------3---------2--------|
|-2--------------------------------------|----------------------------------------|
  1    +    2    +    3    +    4    +     1    +    2    +    3    +    4    +
  Why                 she                  had       to        go        I    don't

  Am                  D                    G
|-2--------------0--------------0--------|----------------------------------------|
|-----------1---------3--------------0---|-0--------------0----1---------0--------|
|-----------2----------------------------|-----------0------------------------0---|
|---------------------0------------------|------0--------------0----0-------------|
|-0--------------------------------------|----------------------------------------|
|----------------------------------------|-3--------------------------------------|
  1    +    2    +    3    +    4    +     1    +    2    +    3    +    4    +
  know           she  would     n't  say


  F#m11               B7                   Em        D         C         Em
|----------------------------------------|-0---------2---------3---------2----0---|
|-0-------------------0------------------|----------------------------------------|
|-2----------------------------------2---|----------------------------------------|
|-----------2-------------------1--------|-2---------0----------------------------|
|---------------------2------------------|---------------------3---------2--------|
|-2--------------------------------------|----------------------------------------|
  1    +    2    +    3    +    4    +     1    +    2    +    3    +    4    +
  I                   said                 some      thing     wrong,    now  I


  Am                  D                    G
|-2--------------0--------------2--------|-3--------------------------------------|
|-----------1---------3------------------|-0---------3---------1---------0--------|
|------2------------------------2--------|-0--------------------------------------|
|---------------------0------------------|-0--------------0---------0---------0---|
|-0--------------------------------------|-2--------------------------------------|
|----------------------------------------|-3--------------------------------------|
  1    +    2    +    3    +    4    +     1    +    2    +    3    +    4    +
  long           for  yes       ter        day.___________________________________


Outtro
  G                   A/C#                 C         G
|----------------------------------------|----------------------------------------|
|-----------0----------------------------|-----------0----0-----------------------|
|-0-------------------2------------------|-0--------------------------------------|
|-0-----------------------------2--------|----------------------------------------|
|---------------------4------------------|-3--------------------------------------|
|----------------------------------------|-----------3----3-----------------------|
  1    +    2    +    3    +    4    +     1    +    2    +    3    +    4    +
  Mm        mm        mm        mm         mm        mm   mm______________________





Comments


Popular Beatles tabs & chords
Birthday 1 Bass Tabs
For No One Bass Tabs
Glass Onion Bass Tabs
Lady Madonna Bass Tabs
Baby Its You Tabs
Catswalk Tabs
Dr Robert 1 Tabs
Get Back 8 Tabs
I Wanna Hold Your Hand Tabs
I've Just Seen A Face 1 Tabs


Song lyrics



↑ Back to top | Tablatures and chords are parodies/interpretations of the original songs. You may use it for private study, scholarship, research or language learning purposes only
© 2014 AZChords.com Contact us | Privacy policy | DMCA | Add/correct tabs | Request tabs | Top 50 tabs