» » »

Yellow Submarine Tabs (ver.3)

Artists:  A B C D E F G H I J K L M N O P Q R S T U V W X Y Z # 

Yellow Submarine Tabs (ver.3)

Beatles
Rating:
0/5 (0 votes)

Hard to play? Try these video lessons and learn fast.
                
here is the intro

D let it ring ---  quick C to G let it ring --- quick Em to A let it ring --- quick C to D let it ring

thats how to play the intro have fun with it. Iif u don't understand just listen to the song and listen to how its 
played its very easy intro

Here is the strumming part very easy just strum up and down 

G   D      D      G  

very easy listen to the song and here how they strum with the D cord and G cord

this the cords u need to play i tabbed them out just for the hell of it

here is a D cord
1--------2-------------------------------
2------------3---------------------------
3---------2------------------------------
4---------------------------------------
5---------------------------------------
6---------------------------------------

here is a G cord
1------------------3---------------------
2---------------------------------------
3---------------------------------------
4---------------------------------------
5----------2-----------------------------
6------------------3---------------------

here is C cord
1---------------------------------------
2----1-----------------------------------
3---------------------------------------
4-------------2--------------------------
5-------------------3--------------------
6---------------------------------------

here is a Em cord
1---------------------------------------
2---------------------------------------
3---------------------------------------
4---------2------------------------------
5-----------2----------------------------
6---------------------------------------

here is a A cord
1---------------------------------------
2------------------------2---------------
3---------------------2------------------
4------------------2---------------------
5---------------------------------------
6---------------------------------------

HAVE FUN ENJOY
            
Hard to play? Try these video lessons and learn fast. | Correct




comments powered by Disqus
↑ Back to top | Tablatures and chords are parodies/interpretations of the original songs. You may use it for private study, scholarship, research or language learning purposes only