» » »

Words Of Love Tabs (ver.1)

Artists:  A B C D E F G H I J K L M N O P Q R S T U V W X Y Z # 

Words Of Love Tabs (ver.1)

Beatles
Rating:
0/5 (0 votes)
Tabs too difficult? Try these video lessons and learn fast.
                Words Of Love by Beatles


e:---------------|---2-----|-0-----| (3x)
B:-2h5-5h2-2h5-0-|-----3---|---2---|
G:---------------|-2-----2-|-----2-|
D:---------------|---------|-------|
A:---------------|---------|-------|
E:---------------|---------|-------|

e:-------------|---2-----|-0-----| riff two
B:-5-5-5-5-5-0-|-----3---|---2---|
G:-------------|-2-----2-|-----2-|
D:-------------|---------|-------|
A:-------------|---------|-------|
E:-------------|---------|-------|

VERSE 1 AND 2:

Riff and chords (D9 D A)

Hold me ..
Tell me ..
Words of ...
Darling I love you, mmm.

SOLO:
    D9           D9         D         A
e:-2h5-5-| |-9--5-2-5-|-2h5-5-5-|-3h7-7-7-| (3x)
B:-2h5-5-| |-10-7-3-7-|-3h7-7-7-|-5h8-8-8-|
G:-------| |----------|---------|---------|
D:-------| |----------|---------|---------|
A:-------| |----------|---------|---------|
E:-------| |----------|---------|---------|

riff two and one;

Let me hear ...
Darling when ...
Words of love ...
Darling I love you, mmm.
            
Tabs too difficult? Try these video lessons and learn fast.


comments powered by Disqus
↑ Back to top | Tablatures and chords are parodies/interpretations of the original songs. You may use it for private study, scholarship, research or language learning purposes only