>
 >
With A Little Help From My Friends

With A Little Help From My Friends Bass Tabs

Beatles - With A Little Help From My Friends chords, tabs, tablatures, lyrics

Guitar lessons | Add/correct | Request | Top 50 tabs Artists:  A B C D E F G H I J K L M N O P Q R S T U V W X Y Z 0-9

With A Little Help From My Friends Bass Tabs – Beatles

CD, Sheet music, Poster

Do you like With A Little Help From My Friends? Share with your friends now
Bass TabsChordsTabsTabs v2Tabs v3
Verse 1
G|-9----8-----------|-11--------9---11---9------|
D|-----------11-----|------9---------------11-9-|
A|----------------9-|---------------------------|
E|------------------|---------------------------|

G|--------------------9--|-------------7/9-7/9-7/9\|
D|------9---------9h11---|------9------------------|
A|-7---------9-----------|-9---------7-------------|
E|-----------------------|-------------------------|

Chorus
G|--------------------------------------------------
D|-------7--7---------------------7--7--------------
A|-5--5--------7--7--7--7-5-5--5-------5-7--5-------
E|---------------------------------------------9--7-

G-----------------9-7--6------|----------------------|
D-------------------------9-7-|-9--------------------|
A-------7-7-----7-------------|----------------------|
E-5--9------9-7---------------|----------------------|

Verse 2
G|---------------13-13-11-9----|------------------9---------
D|------9-------------------11-|------9-9-9----------11-9---
A|-7---------9-----------------|-9----------6-7-------------
E|-----------------------------|----------------------------

G---------------13-----11-9----|---------------7/9-7/9-7/9\|
D------9--------------------11-|------9--------------------|
A-7---------9------------------|-9---------6-7-------------|
E------------------------------|---------------------------|

Chorus 2
G|-------------------------------------------------------
D|--------7--7----------------------7--7-----------------
A|-5--5-5------6-7--7--7--7-4-5--5-------6-7--7--7-7-7-4-
E|-------------------------------------------------------

G-------------------------|
D-7-----------------------|
A----4--7--4-7-7--7--7--7-|
E-------------------------|

Bridge
G|-------6-6-4-4-------------------------------------------
D|---------------6-4--------------------------7--7--7--7-7-
A|-4---------------------7-7-6-4-7--7--5--5-5--------------
E|---------------------------------------------------------

G--------6-6-4-4-------------------------------------------|
D----------------6-4-------------------------7---7---7---7-|
A-4----------------------7-7-6-4-7--7--5--5----7---7---7---|
E----------------------------------------------------------|

Verse 3
G|---------------------9--|-----------------11-9-------
D|------9-9--------9h11---|------9----------------11-9-
A|-7----------9-----------|-9---------7----------------
E|------------------------|----------------------------



G-----------------------9--|--------------7/97/97/9\|
D------9-9-9--------9h11---|------9-9-----------------|
A-7------------9-----------|-9----------7-------------|
E--------------------------|--------------------------|

Chorus 3
G|--------------------------------------------------
D|-------7--7---------------------------------------
A|-5--5--------7--7--7--7-5-5--5-------5-7--5-------
E|--------------------------------5--5----------9--7-

G-------------------------|
D-------------------------|
A-------7--7-4-7--7--7--7-|
E-5--9--------------------|

Bridge
G|-------6-6-4-4-------------------------------------------
D|---------------6-4--------------------------7--7--7--7-7-
A|-4---------------------7-7-6-4-7--7--5--5----------------
E|---------------------------------------------------------

G--------6-6-4-4--------------------------------------------|
D----------------6-4-------------------------7---7---7---7--|
A-4----------------------7-7-6-4-7--7--5--5----------------4|
E-----------------------------------------------------------|

Outro
G|----------------7/9-7/9-7/9\|----------------7/9-7/9-7/9\
D|-------7--7-----------------|-------7--7-----------------
A|-5--5--------7--------------|-5--5--------7--------------
E|----------------------------|----------------------------

G-------------------------|--------------------
D-------------------------|--------------------
A-------7--5-4-7--7--7--7-|-5------------------
E-5--9--------------------|----------5---------

G------------------------|--------------------|
D-5--5--5--5--7--7--7--7-|--------------------|
A------------------------|-7------------------|
E------------------------|--------------------|





Comments


Popular Beatles tabs & chords
Baby Its You Bass Tabs
Come Together 5 Bass Tabs
Free As A Bird 2 Bass Tabs
And I Love Her 2 Chords
Tell Me What You See Chords
Think For Yourself Chords
While My Guitar Gently Weeps Chords
Don't Pass Me By Tabs
Happiness Is 1 Tabs
Let It Be Tabs


Song lyrics



↑ Back to top | Tablatures and chords are parodies/interpretations of the original songs. You may use it for private study, scholarship, research or language learning purposes only
© 2014 AZChords.com Contact us | Privacy policy | DMCA | Add/correct tabs | Request tabs | Top 50 tabs