» » »

What You're Doing Tabs (ver.1)

Artists:  A B C D E F G H I J K L M N O P Q R S T U V W X Y Z # 

What You're Doing Tabs (ver.1)

Beatles
Rating:
0/5 (0 votes)

Tabs too difficult? Try these video lessons and learn fast.
                What You're Doing by Beatles



Intro:
|----------7--5----------------------|
|------7----------7--5--5------5--7--|
|--7--------------------------7------|
|------------------------------------|
|------------------------------------|
|------------------------------------|


D                        G        D             G
Look, what you're doing, I'm feeling blue and lonely
            Bm                    G
Would it be too much to ask of you
                               D
What you're doing to me


You got me running, and there's no fun in it
Why should it be so much to ask of you
What you're doing to me


G                       Bm
I've been waiting here for you
G                                Bm
Wondering what you're gonna do
E
And should you need a love that's true
      A
It's me


Please, stop your lying, you got me crying girl
Why should it be so much to ask of you
What you're doing to me


Solo:
|-----------------9/7--7---------------9/7--7--|
|--7/10--10---------------10--10---------------|
|----------------------------------------------|
|----------------------------------------------|
|----------------------------------------------|
|----------------------------------------------|

|----------7----------7------7--7--------------5------7--5---------|
|--7----------------------8----------8--------------7-----------7--|
|------7------7--7----------------------7--7-----------------------|
|------------------------------------------------------------------|
|------------------------------------------------------------------|
|------------------------------------------------------------------|
            
Tabs too difficult? Try these video lessons and learn fast.




comments powered by Disqus
↑ Back to top | Tablatures and chords are parodies/interpretations of the original songs. You may use it for private study, scholarship, research or language learning purposes only