» » »

Beatles, What Goes On? Tabs (ver.1)

Artists:  A B C D E F G H I J K L M N O P Q R S T U V W X Y Z # 

What Goes On? Tabs (ver.1)

Beatles Tabs
Rating:
0/5 (0 votes)
Hard to play? Try these video lessons and learn fast.
                Chorus
What goes on in your heart?
What goes on in your mind?
You are tearing me apart
When you treat me so unkind
What goes on in your mind
Verse
The other day I saw you
As I walked along the road
But when I saw him with you
I could feel my future fold
It's so easy for a girl like you to lie
Tell me why

Chorus

Verse
I met you in the morning
waiting for the tides of time
But now the tide is turning
I can see that I was blind
It's so easy for a girl like you to lie
Tell me why
What goes on in your heart?

Solo

I used to think of no on else
But you were just the same
You didn't even think of me
As someone with a name
Did you mean to break my heart and watch me die
Tell me why

Chorus
In your mind
In your mind


...............................................


The first are a couple of examples about how rythm guitar goes and then 
there's the intro and the solo guitar part along with the words


  E
E|--------------------|--------------------|--------------------|
B|--------------------|--------------------|--------------------|
G|--------------------|--------------------|--------------------|
D|-------------2------|-------------2------|-------------2------|
A|-------------2------|-------------2------|-------------2------|
E|0-------3/4---------|0-------3/4---------|0-------3/4-----4---|x2

  A
E|--------------------|--------------------|
B|--------------------|--------------------|
G|-------------2------|-------------2------|
D|-------------2------|-------------2------|
A|0-------3/4---------|0-------3/4---------|
E|--------------------|--------------------|

  E
E|--------------------|--------------------|--------------------|
B|--------------------|--------------------|--------------------|
G|--------------------|--------------------|--------------------|
D|-------------2------|-------------2------|-------------2------|
A|-------------2------|-------------2------|-------------2------|
E|0-------3/4---------|0-------3/4---------|0-------3/4---------|x2

  A                                         B
E|--------------------|--------------------|--------------------|
B|--------------------|--------------------|--------------------|
G|-------------2------|-------------2------|-------------4------|
D|-------------2------|-------------2------|-------------4------|
A|0-------3/4---------|0-------3/4-------/-|2-------5/6-------6\|
E|--------------------|--------------------|--------------------|

                       E
E|--------------------|--------------------|--------------------|
B|--------------------|--------------------|--------------------|
G|-------------4------|-------------2------|2-------2-----2-----|
D|-------------4------|-------------2------|2-------2-----2-----|
A|2-------5/6---------|--------------------|--------------------|
E|--------------------|0-------3/4---------|0---------(0)-------|






  E
E|--------------------|--------------------|--------------------|
B|--------------------|--------------------|--------------------|
G|--------------------|--------------------|--------------------|
D|-------------2------|-------------2------|-------------2------|
A|-------------2------|-------------2------|-------------2------|
E|0-------3/4---------|0-------3/4---------|0-------3/4---------|x2

  A
E|--------------------|--------------------|
B|--------------------|--------------------|
G|-------------2------|-------------2------|
D|-------------2------|-------------2------|
A|0-------3/4---------|0-------3/4---------|
E|--------------------|--------------------|

  E
E|--------------------|--------------------|--------------------|
B|--------------------|--------------------|--------------------|
G|--------------------|--------------------|--------------------|
D|-------------2------|-------------2------|-------------2------|
A|-------------2------|-------------2------|-------------2------|
E|0-------3/4---------|0-------3/4---------|0-------3/4---------|x2

  A                                         B
E|--------------------|--------------------|--------------------|
B|--------------------|--------------------|--------------------|
G|-------------2------|-------------2------|--------4----4------|
D|-------------2------|-------------2------|--------4----4------|
A|0-------3/4---------|0-------3/4---------|--------------------|
E|--------------------|--------------------|--------------------|

                       E
E|--------------------|--------------------|--------------------|
B|--------------------|--------------------|--------------------|
G|--------4----4------|-------------2------|2-------4-----4-----|
D|--------5----5------|-------------2------|2-------5-----5-----|
A|--------------------|--------------------|--------------------|
E|--------------------|0-------3/4---------|0-------------------|








Intro

                       E                    B
E|-----0---------3----|-----4--------------|--------------------|
B|--------------------|--------------------|--4-------4---------|
G|-----1----2----3----|4-------------------|--------------------|
D|--------------------|--------------------|4------4-----5R4----|
A|--------------------|--------------------|--------------------|
E|--------------------|--------------------|--------------------|

                                 Chorus
  E                               
E|-----0--------------|0-------------------|--------------------|
B|------------0-------|--------------------|------------0-------|
G|--------------------|--------------------|--------------------|
D|2-------------------|--------------------|--------------------|
A|--------------------|--------------------|--------------------|
E|--------------------|--------------------|--------------------|
                                 What goes on


E|0-------------------|-----0--------------|0------------0------|
B|--------------------|-------------0------|-------0------------|
G|--------------------|--------------------|--------------------|
D|--------------------|--------------------|--------------------|
A|--------------------|--------------------|--------------------|
E|--------------------|--------------------|--------------------|
            in your heart?                            What goes on

                                            A
E|--------------------|--------------------|-----0------------0-|
B|--------------------|--------------------|------------2-------|
G|--------------------|--------------------|---------------0----|
D|--------------------|--------------------|2-------------------|
A|--------------------|--------------------|--------------------|
E|--------------------|--------------------|--------------------|
                                 in your mind?

                       E
E|---------0----------|--------------------|--------------------|
B|---2---------2------|--------------------|--------------------|
G|------0---------0---|--------------------|--------------------|
D|--------------------|--------------------|--------------------|
A|--------------------|--------------------|--------------------|
E|--------------------|--------------------|--------------------|
           you are tea...........................ring me a....part


E|-----0------------0-|--------------------|------0-------------|
B|--------------------|--------3-----0-----|--------------------|
G|-------------1------|--------------------|--------------------|
D|--------------------|--------------------|--------------------|
A|--------------------|--------------------|--------------------|
E|--------------------|--------------------|--------------------|
                                 When you   tre.................

                       A
E|--------------------|--------------------|0------0------------|
B|--------------------|-----2--------------|---2----------------|
G|--------------------|------------0-------|--------------------|
D|--------------------|--------------------|--------------------|
A|--------------------|--------------------|--------------------|
E|--------------------|--------------------|--------------------|
  ..at  me so un....kind                              What goes on

  B                                         E
E|--------------------|--------------------|-----0--------------|
B|-----------------0--|--------------------|--------------------|
G|--------------------|--------------------|------------1-------|
D|--------------------|--------------------|--------------------|
A|--------------------|--------------------|--------------------|
E|--------------------|--------------------|--------------------|
                                 in your mind?



                       Verse
                       
E|0-------------------|--------------------|--------------------|
B|--------------------|-----0--------------|--------------------|
G|--------------------|-----1------1-------|-----1------1-------|
D|--------------------|-----2------2-------|-----2------2-------|
A|--------------------|--------------------|--------------------|
E|--------------------|--------------------|--------------------|
                   The other   day    I    saw    you  As I 

  A                                         E
E|--------------------|------------0-------|--------------------|
B|-----1--------------|-----1------1-------|------------0-------|
G|-----2-------2----2-|-----2------2-------|----1---------------|
D|-----2-------2------|-----2------2-------|----2---------------|
A|--------------------|--------------------|--------------------|
E|--------------------|--------------------|--------------------|
  walked  along  the road               But when  I  saw  him with 

                       A
E|--------------------|-----0--------------|-----0------0-------|
B|--------------------|-----1-------0---0--|-----1------1-------|
G|-----1-------1------|-----2--------------|-----2------2-------|
D|-----2-------2------|-----2--------------|-----2------2-------|
A|--------------------|--------------------|--------------------|
E|--------------------|--------------------|--------------------|
       you  I  could  feel   my  future  fold         it's  so

                       B                    E
E|-----0--------------|---------------2----|-----0--------------|
B|-----1-----------0--|-----0---------0----|-------------3------|
G|-----2-------2------|---------2-----2----|------------------0-H
D|-----2--------------|---------------1----|--------------------|
A|--------------------|--------------------|--------------------|
E|--------------------|--------------------|--------------------|
  ea...sy   for  a  girl    like  you to lie 



                                                     Chorus
                       B
E|---0----------------|--------------------|--------------------|
B|--------3-----0-----|------------0-------|---0----------0-----|
G|1-------------------|-----2-------------3/4--------3----------|
D|--------------------|--------------------|--------------------|
A|--------------------|--------------------|--------------------|
E|--------------------|--------------------|--------------------|
           tell  me  why                              What goes on 

  E
E|--------------------|--------------------|----0------------0--|
B|--------------------|--------------------|-----------3--------|
G|--------------------|--------------------|--------------------|
D|--------------------|--------------------|--------------------|
A|--------------------|--------------------|--------------------|
E|--------------------|--------------------|--------------------|
            

comments powered by Disqus
↑ Back to top | Beatles Tabs for What Goes On?. Lyrics for acoustic guitar and electric guitar. Tablatures and chords are parodies/interpretations of the original songs. You may use it for private study, scholarship, research or language learning purposes only