» » »

Beatles, Twist And Shout Lead Break Tabs (ver.1)

Artists:  A B C D E F G H I J K L M N O P Q R S T U V W X Y Z # 

Twist And Shout Lead Break Tabs (ver.1)

Beatles Tabs
 Rating:
4/5 (4 votes)
Twist And Shout Lead Break lessons Tabs too difficult? Try these video lessons and learn fast
1
                No disrespect intended to other postings, however 
I think the lead break that I’ve seen posted is not correct.
It’s pretty simple, but I need a reminder when I have not
played it for a while.
I believe it is more like the following:

Twist and Shout by the Beatles

Corrected Lead Break


 GUITAR BREAK           

E------------------------------------
B----------------3--2----------------
G-------------4--4--2---—-2--4—-2----   4X
D---4------4--5-----------4--5—-4----
A---5------5-------------------------
E------------------------------------

The next two versions use the same notes with slightly different 
positions, good to remember if you break a string?!?

E----------------------------------
B----------------------------------
G-------------4--7--6—-2--4--2-----
D---4------4--5--9--7—-4--5--4-----   4X
A---5------5-----------------------
E----------------------------------

One of my guitars sounds a little nicer higher up the neck, so 
maybe try this?!?

E---------------------------------------
B---------------------------------------
G---------------------------------------
D-------------9--12--11—-7---9--7-------   4X
A---9-----9--10--14--12—-9--10--9-------
E--10----10-----------------------------

And the jazzy chord at the very end, for those that have any 
trouble remembering it (like me!):


E---5-----------
B---5-----------
G---5-----------
D---4-----------
A---5-----------
E---------------
            
Submit corrections

comments powered by Disqus
↑ Back to top | Beatles Tabs for Twist And Shout Lead Break. Lyrics for acoustic guitar and electric guitar. 1 Tablatures and chords are parodies/interpretations of the original songs. You may use it for private study, scholarship, research or language learning purposes only