» » »

There's A Place Bass tabs (ver.1)

Artists:  A B C D E F G H I J K L M N O P Q R S T U V W X Y Z # 

There's A Place Bass tabs (ver.1)

Beatles
Rating:
0/5 (0 votes)

Tabs too difficult? Try these video lessons and learn fast.
                Standard Tuning 
Time Signature 4/4

   
G|------------------|--------------|---------------|---2-------------|--R-|
D|--2--2-----2------|--------------|--2---2-----2--|-----------------|--R-|
A|------------------|--0----0--0---|---------------|-----------------|--R-|
E|------------------|--------------|---------------|-----------------|--R-|

G|------------------|--------------|---------------|---2-------2---2-|
D|--2--2-----2------|--------------|--2---2-----2--|-----------------|
A|------------------|--0----0--0---|---------------|-----------------|
E|------------------|--------------|---------------|-----------------|

G|------------------|--------------|---------------|-----------------|
D|--2--2-----2------|--------------|---------------|-----------------|
A|------------------|--3----3--3---|--2-----2--2---|--2--------0-2---|
E|------------------|--------------|---------------|---------3-------|

G|--0--0------0-----|--2----2--2---|---------------|-----------------|
D|------------------|--------------|--2---2----2---|-----------------|
A|------------------|--------------|---------------|--0------0---0---|
E|------------------|--------------|---------------|-----------------|

G|------------------|--------------|---------------|-----------------|
D|------------------|--------------|--R--R--R---R--|---2------2--2---|
A|--3---3------3----|--3-----------|---------------|-----------------|
E|------------------|--------------|---------------|-----------------|

G|--2---2------2----|--------------|---2----2----2-|-----------------|
D|------------------|--2----2---2--|---------------|--2------2---2---|
A|------------------|--------------|---------------|-----------------|
E|------------------|--------------|---------------|-----------------|

G|------------------|--------------|---------------|-----------------|
D|------------------|--------------|---------------|-----------------|
A|--3---3------3----|--2----2--2---|--2---2-----2--|--0------0---0---|
E|------------------|--------------|---------------|-----------------|

G|------------------|--------------|---------------|-----------------|
D|------------------|--------------|------------0--|-----------------|
A|--0-----0---0-----|--2----2--2---|---2---2-------|--3-----3---3----|
E|------------------|--------------|---------------|-----------------|

G|------------------|--------------|--0-----0---0--|-----------------|
D|--3--3-----3------|--2-----2---2-|---------------|-----------------|
A|------------------|--------------|---------------|--3----3----3----|
E|------------------|--------------|---------------|-----------------|

G|------------------|--------------|--0-----0---0--|-----------------|
D|--3--3-----3------|--2-----2---2-|---------------|-----------------|
A|------------------|--------------|---------------|--3--------------|
E|------------------|--------------|---------------|-----------------|

G|------------------|--------------|--2---2------2-|-----------------|
D|------------------|--2----2---2--|---------------|--2----2---2-----|
A|--R--R---R--R-----|--------------|---------------|-----------------|
E|------------------|--------------|---------------|-----------------|

G|------------------|--------------|---------------|-----------------|
D|------------------|--2-----2--2--|---------------|-----------------|
A|--0-----0---0-----|--------------|--3--3-----3---|--2-----2---2----|
E|------------------|--------------|---------------|-----------------|

G|------------------|--0----0---0--|--2-----2--2---|-----------------|
D|------------------|--------------|---------------|--2-----2---2----|
A|--2--------0-2----|--------------|---------------|-----------------|
E|---------3--------|--------------|---------------|-----------------|

G|------------------|--------------|---------------|-----------------|
D|------------------|--------------|---------------|--2----2---2-----|
A|--0-----0----0----|--3-----3---3-|--3------------|-----------------|
E|------------------|--------------|---------------|-----------------|
   
G|--2------2---2----|--------------|--2-----2---2--|-----------------|
D|------------------|--2-----2--2--|---------------|--2-----2---2----|
A|------------------|--------------|---------------|-----------------|
E|------------------|--------------|---------------|-----------------|

G|--2------2----2---|--------------|---2-----2--2--|-----------------|
D|------------------|--2----2--2---|---------------|--2----2---2-----|
A|------------------|--------------|---------------|-----------------|
E|------------------|--------------|---------------|-----------------|
   
(((Bass is Bass)))
            
Tabs too difficult? Try these video lessons and learn fast.




comments powered by Disqus
↑ Back to top | Tablatures and chords are parodies/interpretations of the original songs. You may use it for private study, scholarship, research or language learning purposes only