» » »

Beatles, Sgt. Pepper's Lonely Hearts Club Band Bass tabs (ver.1)

Artists:  A B C D E F G H I J K L M N O P Q R S T U V W X Y Z # 

Sgt. Pepper's Lonely Hearts Club Band Bass tabs (ver.1)

Beatles Tabs
 Rating:
4/5 (4 votes)
Sgt. Pepper's Lonely Hearts Club Band lessons Tabs too difficult? Try these video lessons and learn fast
1
                Intro                    X2  
G|------------------------|------------------------|------------------------|
D|------------------------|------------------------|------------------------|
A|------------------------|-3--3--3--3--3--3--3--3-|------------------------|
E|-5—-5—-5—-5--5--5--5--5-|------------------------|-3----------------------|

Verse 1                                      X2
G|----------------------|----------------------
D|----------------------|----------------------
A|----------------------|-3--3--3--------------
E|-3--3--3----5--5--5---|------------3--3--3---

G------------------------|------------------------
D------------------------|------------------------
A------------------------|-3--3--3--3--3--3--3—-3-
E-5--5--5--5--5--5--5--5-|------------------------
  
G------------------------|------------------------
D------------------------|------------------------
A-------2--2--3--3--4--5-|-------2--2--5--5--2--2-
E-3--3-------------------|-3--3-------------------

G-------------------------|------------------------|------------------------
D-------------------------|-3--3--0--0-------------|------------------------
A-3--3--------------------|-------------3--3--0--0-|-3--3--3--3--3--3--3--3-
E-------6--6--5--5—-3--3--|------------------------|------------------------

G------------------------|------------------------|
D------------------------|------------------------|
A-5-----5-----5-----5----|-5-----5-----5----------|
E----5-----5-----5-----5-|----5-----5-------------|

Chorus
G|--------------------|--------------------|-----------------------
D|--------------------|--------------------|-----------------------
A|--------------------|-3--3---------------|-3--3------------------
E|-3--3------6--6-----|-----------3--3-----|-------6--6--5—5--3--3-

G------------------------|--------------------|--------------------
D------------------------|--------------------|--------------------
A------------------------|--------------------|-3--3---------------
E-3--3--3--3--3--3--3--0-|-3--3------6--6-----|-----------3--3-----

G------------------------|--------------------|
D------------------------|--------------------|
A------------------------|-5------------------|
E-5--5--5--0--5--5--5—-0-|--------------------|

Bridge
G|------------------------|------------------------
D|------------------------|------------------------
A|-3--3--3-----3--3--3----|----------5-------------
E|----------3-----------3-|-3--3--3-----3--3--3—-4-

G------------------------|--------------------
D------------------------|--------------------
A----------------------3-|---5---------5------
E-5--5--5--5--5--5--5----|--------3-------3—--

G------------------------|------------------------|------------------------
D------------------------|------------------------|------------------------
A-3--3-------------------|-------0--0--3--3--0----|-3--3-------------------
E-------6--6--5--5--3--3-|-1--1-----------------3-|-------6--6--5--5--3--3-

G------------------------|---------------------|
D------------------------|---------------------|
A-5-----5-----5----------|-5-----5-----5-------|
E----5-----5-----5--2--5-|----5-----5----------|

Verse 2                                      X2
G|----------------------|----------------------
D|----------------------|----------------------
A|----------------------|-3--3--3--------------
E|-3--3--3----5--5--5---|------------3--3--3---

G------------------------|---------------------
D------------------------|---------------------
A------------------------|---------------------
E-5--5--5--5--5--5--5--5-|-8--8--8--8--8—-8--8\
  
G------------------------|------------------------
D------------------------|------------------------
A-------2--2--3--3--4--5-|-------2--2--5--5--2--2-
E-3--3-------------------|-3--3-------------------

Outro (Intro ‘With a Little Help From My Friends’)
G|------------------------|------------------------|
D|------------------------|------------------------|
A|-3--3-------------------|-3--3-------------------|
E|-------6--6--5--5--3--3-|-------6--6--5--5--3--3-|
            
Submit corrections

comments powered by Disqus
↑ Back to top | Beatles Bass for Sgt. Pepper's Lonely Hearts Club Band. Lyrics for acoustic guitar and electric guitar. 1 Tablatures and chords are parodies/interpretations of the original songs. You may use it for private study, scholarship, research or language learning purposes only