» » »

Sergeant Pepper's Lonely Hearts Club Ban Tabs (ver.1)

Artists:  A B C D E F G H I J K L M N O P Q R S T U V W X Y Z # 

Sergeant Pepper's Lonely Hearts Club Ban Tabs (ver.1)

Beatles
Rating:
0/5 (0 votes)

Tabs too difficult? Try these video lessons and learn fast.
                Sergeant Pepper's Lonely Hearts Club Band by Beatles

 
Intro:

A7
E-----------------------------------------------------------------
B-------------------8-10-----------------------------8-10---------
G----------------/9-------------------------------/9--------------
D-----------------------------------------------------------------
A-----------------------------------------------------------------
E-----------------------------------------------------------------

C7 G7
E-----------------8---10------------------------------------------
B-----------8-10----------8p6--8----------------------------------
G--------/9------------------------7-------4\---------------------
D------------------------------------------3\---------------------
A------------------------------------------5\---------------------
E------------------------------------------3\---------------------


Verse 1:

G7            A7
It was twenty years ago today

C7            G7
Sergeant Pepper taught the band to play

G7            A7
They've been going in and out of style

C7            G7
But they're guaranteed to raise a smile

A7
So may I introduce to you

C7
The act you've known for all these years

G7                C7                  G7
Sergeant Pepper's Lonely Heart's Club Band
 

Trumpet Solo:
E-----------------------------------------8----------------
B-----11-10-8-------------10----10-10--------11-10-8-------
G--------------9----9--------10-----------------------10-9-
D----------------10----------------------------------------
A----------------------------------------------------------
E----------------------------------------------------------

E----------------8---------------------------10--
B---------7-10------------------7-----7-10-------
G----7-9---------------7-6-7-9-----9-------------
D------------------------------------------------
A-------------------------------------------------
E-------------------------------------------------


Chorus:

G              Bb              C7              G
We're Sergeant Pepper's Lonely Heart's Club Band

C7               G7
We hope you will enjoy the show

G               Bb             C7              G
Sergeant Pepper's Lonely Heart's Club Band

A7                D7
Sit back and let the evening go


Bridge:

C7
Sergeant Pepper's Lonely

G7
Sergeant Pepper's Lonely

A7
Sergeant Pepper's Lonely

C7              G7
Heart's Club Band


C7
It's wonderful to be here

F7
It's certainly a thrill

C7
You're such a lovely audience

D7
We'd like to take you home with us

We'd love to take you home


Verse 2:

G7              A7
I don't really wanna stop the show

C7                G7
But I thought you might like to know

G7                 A7
That the singer's gonna sing a song

C7               G7
And he wants you all to sing along

A7
So may I introduce to you

C7
The one and only Billy Shears

G7                  C7                G7
Sergeant Pepper's Lonely Heart's Club Band

C7
(Segue into "With A Little Help from My Friends")
            
Tabs too difficult? Try these video lessons and learn fast.




comments powered by Disqus
↑ Back to top | Tablatures and chords are parodies/interpretations of the original songs. You may use it for private study, scholarship, research or language learning purposes only