» » »

P.S. I Love You Tabs (ver.1)

Artists:  A B C D E F G H I J K L M N O P Q R S T U V W X Y Z # 

P.S. I Love You Tabs (ver.1)

Beatles
Rating:
0/5 (0 votes)

Hard to play? Try these video lessons and learn fast.
                I'm only tabbing the this part and not the whole song because the other tab
had the right chords 


  G               D             G               D
e|3---------------2-------2-0---3---------------2----|
B|3---------------3-----------0-3---------------3----|
G|0---------------2-------------0---------------2----|
D|0---------------0-------------0---------------0----|
A|2-----------------------------2--------------------|
E|3-----------------------------3--------------------|
  As I write this letter, oh,__ Send my love to you,  

                              G                    
e|-5---5----5-2---0------------3--------------------2---------------|
B|---------------------3-------3--------------------3------3--0-----|
G|------------------------2----0--------------------2------------2--|
D|-----------------------------0--------------------0---------------|
A|-----------------------------2------------------------------------|
E|-----------------------------3------------------------------------|
   you know I want you to re - mem - ber that I'll always, yeah___ 

D     A7        D
Be in love with you  
                      Em7                           D         A7                 D
e|--------------------0-----------------------------2---------0------------------2--|
B|----------0-----3---0------3----2----0----0-------3-----0---2------------------3--|
G|-2---2--------------0-----------------------------2---------0---0--------------2--|
D|--------------------0-----------------------------0---------2------4----2---2--0--|
A|--------------------2-------------------------------------------------------------|
E|--------------------0-------------------------------------------------------------| 
   Treasure these few words 'till we're to - geth - er,  Keep all my love for-ev-er,  

A  A7          Bb
P. S.,  I love you.

Bb   C7   D
You, you, you.
            
Hard to play? Try these video lessons and learn fast. | Correct




comments powered by Disqus
↑ Back to top | Tablatures and chords are parodies/interpretations of the original songs. You may use it for private study, scholarship, research or language learning purposes only