» » »

Old Brown Shoe Tabs (ver.2)

Artists:  A B C D E F G H I J K L M N O P Q R S T U V W X Y Z # 

Old Brown Shoe Tabs (ver.2)

Beatles
Rating:
0/5 (0 votes)

Hard to play? Try these video lessons and learn fast.
                (B-side of "The Ballad Of John and Yoko") 1969

Guitar Parts



Verses


E -|------8-------8---------|
B -|--6/8-----6/8----8/11~--|
G -|-----------------9/12~--|
D -|------------------------|
A -|------------------------|
E -|------------------------|

E -|-------10--------10----------|
B -|--8/10-----8/10------10/13~--|
G -|---------------------11/14~--|
D -|-----------------------------|
A -|-----------------------------|
E -|-----------------------------|


Solo


E -|----------------------------------------------------8-----|
B -|-------------------------------------------------------7--|
G -|---10p8----8~---10-8--10b12-10b12-12r10p8-8~----6/8----8--|
D -|--------10------------------------------------------------|
A -|----------------------------------------------------------|
E -|----------------------------------------------------------|

E -|--------4----------------------------------------------------|
B -|--2/4-7---7p4------------------------------------------------|
G -|--------------6-5h6p5--------------5-7-5~-----------5-7-5~---|
D -|----------------------6-5-43--5/7--------7--2--4/7--------7-|
A -|-------------------------------------------------------------|
E -|-------------------------------------------------------------|

E -|--------------------5------------8b10---|
B -|----------------------8b10r8--5---------|
G -|---------5-7-8--7b8---------------------|
D -|-----5-7--------------------------------|
A -|--/7------------------------------------|
E -|----------------------------------------|
            
Hard to play? Try these video lessons and learn fast. | Correct




comments powered by Disqus
↑ Back to top | Tablatures and chords are parodies/interpretations of the original songs. You may use it for private study, scholarship, research or language learning purposes only