» » »

Norweigen Wood This Bird Has Flown Bass tabs (ver.1)

Artists:  A B C D E F G H I J K L M N O P Q R S T U V W X Y Z # 

Norweigen Wood This Bird Has Flown Bass tabs (ver.1)

Beatles
Rating:
0/5 (0 votes)

Hard to play? Try these video lessons and learn fast.
                BEATLES - NORWEIGEN WOOD (THIS BIRD HAS FLOWN)

             |           |           |
|------------------------------------------------|
|------------------------------------------------|
|----------------------------------------------2-|
|------------------------------------------------|
 |           |           |           |
|------------------------------------------------|
|2---------2-------------2---------2-------------|
|------------2---------2-------------2---------2-|
|------------------------------------------------|
 |           |           |           |
|------------------------------------------------|
|2---------2---------2---2---------2-------------|
|------------2-----------------------2-----------|
|------------------------------------------------|
 |           |           |           |
|------------------------------------------------|
|2---------2-------------2---------2-------------|
|------------2---------2-------------2---------2-|
|------------------------------------------------|
 |           |           |           |
|----------------7---9---------------------------|
|------------9-----------------------------------|
|7-----------------------7---------7-------------|
|------------------------------------7-----------|
 |           |           |           |
|------------------------------------------------|
|2---------2-------------2---------2-------------|
|------------2---------2-------------2---------2-|
|------------------------------------------------|
 |           |           |           |
|----------------2---4---------------------------|
|2-----------2-----------------------------------|
|------------------------2-----------2-----------|
|------------------------------------------------|
 |           |           |           |
|------------------------------------------------|
|2-----------2-----------2-----------2-----------|
|------------------------------------------------|
|------------------------------------------------|
 |           |           |           |
|2-------------------0---2-------------------2---|
|------------2-----------------------2-----------|
|------------------------------------------------|
|------------------------------------------------|
 |           |           |           |
|------------------------------------------------|
|2-----------------------2-----------2-----------|
|------------2-----------------------------------|
|------------------------------------------------|
 |           |           |           |
|------------------------------------------------|
|4-----------4-------------------------------1---|
|------------------------2---------2-2-----------|
|------------------------------------------------|
 |           |           |           |
|------------------------------------------------|
|2---------2-------------2---------2-------------|
|------------2---------2-------------2---------2-|
|------------------------------------------------|
 |           |           |           |
|----------------7---9---------------------------|
|------------9-----------------------------------|
|7-----------------------7---------7-------------|
|------------------------------------7-----------|
 |           |           |           |
|------------------------------------------------|
|2---------2-------------2---------2-------------|
|------------2---------2-------------2---------2-|
|------------------------------------------------|
 |           |           |           |
|----------------7---9---------------------------|
|------------9---------------------------9-7-----|
|7-----------------------7-----------7-------10--|
|------------------------------------------------|
 
|           |           |           |
|------------------------------------------------|
|2---------2-------------2---------2-----------1-|
|------------2---------2-------------2-----------|
|------------------------------------------------|
 |           |           |           |
|------------2---3---4---------------------------|
|2-----------------------2-----------------------|
|------------------------------------2---5---2---|
|------------------------------------------------|
 |           |           |           |
|------------------------------------------------|
|2-------------------1---2---------2---------1---|
|------------2-----------------------2-----------|
|------------------------------------------------|
 |           |           |           |
|----------------7---9---------------------------|
|------------9-----------------------------------|
|7-----------------------7---------7-------------|
|------------------------------------7---------7-|
 |           |           |           |
|------------------------------------------------|
|2-----------2-----------2-----------2-----------|
|------------------------------------------------|
|------------------------------------------------|
 |           |           |           |
|2-------------------0---2-------------------2---|
|------------2-----------------------2-----------|
|------------------------------------------------|
|------------------------------------------------|
 |           |           |           |
|------------------------------------------------|
|2-----------------------2-----------2-----------|
|------------2-----------------------------------|
|------------------------------------------------|
 |           |           |           |
|------------------------------------------------|
|4-----------4-------------------------------1---|
|------------------------2---------2-2-----------|
|------------------------------------------------|
 |           |           |           |
|------------------------------------------------|
|2---------2-------------2---------2-------------|
|------------2---------2-------------2---------2-|
|------------------------------------------------|
 |           |           |           |
|----------------7---9---------------------------|
|------------9-----------------------------------|
|7-----------------------7---------7-------------|
|------------------------------------7-----------|
 |           |           |           |
|------------------------------------------------|
|2---------2-------------2---------2-------------|
|------------2---------2-------------2---------2-|
|------------------------------------------------|
 |           |           |           |
|----------------7---9---------------------------|
|------------9-----------------------------------|
|7-----------------------7---------7-----6-------|
|------------------------------------7-------7---|
 |           |           |           |
|------------------------------------------------|
|2---------2-------------2---------2-----------1-|
|------------2---------2-------------2-----------|
|------------------------------------------------|
 |           |           |           |
|------------2---3---4---------------------------|
|2-----------------------2-----------------------|
|------------------------------------------------|
|------------------------------------------------|
            
Hard to play? Try these video lessons and learn fast. | Correct




comments powered by Disqus
↑ Back to top | Tablatures and chords are parodies/interpretations of the original songs. You may use it for private study, scholarship, research or language learning purposes only