» » »

Mean Mr. Mustard Bass tabs (ver.1)

Artists:  A B C D E F G H I J K L M N O P Q R S T U V W X Y Z # 

Mean Mr. Mustard Bass tabs (ver.1)

Beatles
Rating:
0/5 (0 votes)

Hard to play? Try these video lessons and learn fast.
                Verse 1
G------------------|------------------|----------------|
D------------------|------------------|----------------|
A-7-7\0------------|-7-7-X------------|-7-7-X----------|
E----------7-7-X---|----------7-7-X---|----------7-7-X-|

G----------------------|------------------|--------------------|
D-------------------h4-|----------4-4-X---|---------4----------|
A-7-7-X----0h7-6-5-0---|-2-2-X------------|-2-2-X-----2-3-4-5--|
E----------------------|------------------|--------------------|

G-----------|-----------------------|-----------|--------------------|
D---7-7-X---|----------7------------|---4-4-X---|----------4-----2---|
A-----------|-5-5-X------5-4-3-2----|-----------|-2-2-X------2-3---3-|
E-----------|-----------------------|-----------|--------------------|

Chorus 1
G--------------------------------------|
D--------------------------------------|
A-7-7-X--------------------------------|
E----------8-8-X----7-7-X----8-X--9/11-|

G--------------------------------------|
D--------------------------------------|
A-7-7-X----------------------------7---|
E----------8-8-X----7-7-X----7-8-9---9-|

Verse 2 (Same as Verse 1)

Chorus 2
G----------------------|----------------------|
D----------------------|----------------------|        To
A-7--------------------|-7--------------------|  "Polythene Pam"
E------8----7----7-8-9-|------8----7----7-8-9-|
            
Hard to play? Try these video lessons and learn fast. | Correct




comments powered by Disqus
↑ Back to top | Tablatures and chords are parodies/interpretations of the original songs. You may use it for private study, scholarship, research or language learning purposes only