» » »

Lean On Me Bass tabs (ver.1)

Artists:  A B C D E F G H I J K L M N O P Q R S T U V W X Y Z # 

Lean On Me Bass tabs (ver.1)

Beatles
Rating:
0/5 (0 votes)

Hard to play? Try these video lessons and learn fast.
                My band played this song at our elementry graduation
      
Intro/Verses
G|----------------------------------------------------------------------------------
D|----------------------------------------------------------------------------------
A|---------0--1--1--0--------------0----------------------0-1--1-0-----------0---
E|--1-1--3------------3--1---1--3-----3-----------1-1--3-----------3-1--1-3----3--1-                                                                                     
                                                                                   Chorus
G|----------------------------------------------------------------------------------
D|----------------------------------------------------------------------------------
A|-0----------------1---1-1-1-1---------3-3--------------1--1-1-1-----------3-------
E|---3--1--1-1-1-1--------------1-1-1-----------1-1-1-1-----------1--1-1-1-----1----                                                                                    

      Verse #2
G|----------------------------------------------------------------------------------
D|----------------------------------------------------------------------------------
A|---------0--1--1--0--------------0----------------------0-1--1-0-----------0---
E|--1-1--3------------3--1---1--3-----3-----------1-1--3-----------3-1--1-3----3--1-



Chorus
G|----------------------------------------------------------------------------------
D|----------------------------------------------------------------------------------
A|-0----------------1---1-1-1-1---------3-3--------------1--1-1-1-----------3-------
E|---3--1--1-1-1-1--------------1-1-1-----------1-1-1-1-----------1--1-1-1-----1----                                                                                    claping solo                                                                                                                                                                    Chorus
G|----------------------------------------------------------------------------------
D|----------------------------------------------------------------------------------
A|-0----------------1---1-1-1-1---------3-3--------------1--1-1-1-----------3-------
E|---3--1--1-1-1-1--------------1-1-1-----------1-1-1-1-----------1--1-1-1-----1----                                                                                    Verse #3
G|----------------------------------------------------------------------------------
D|----------------------------------------------------------------------------------
A|---------0--1--1--0--------------0----------------------0-1--1-0-----------0---
E|--1-1--3------------3--1---1--3-----3-----------1-1--3-----------3-1--1-3----3--1-
                                                                                                                                                                         Chorus
G|----------------------------------------------------------------------------------
D|----------------------------------------------------------------------------------
A|-0----------------1---1-1-1-1---------3-3--------------1--1-1-1-----------3-------
E|---3--1--1-1-1-1--------------1-1-1-----------1-1-1-1-----------1--1-1-1-----1----
            
Hard to play? Try these video lessons and learn fast. | Correct




comments powered by Disqus
↑ Back to top | Tablatures and chords are parodies/interpretations of the original songs. You may use it for private study, scholarship, research or language learning purposes only