» » »

Beatles, Lady Madonna Bass tabs (ver.1)

Artists:  A B C D E F G H I J K L M N O P Q R S T U V W X Y Z # 

Lady Madonna Bass tabs (ver.1)

Beatles Tabs
Rating:
0/5 (0 votes)
Lady Madonna lessons Tabs too difficult? Try these video lessons and learn fast
                Intro   Verse (2x)
G------|-------------------|--------------------|
D------|---------------4h7-|----------------4h7-|
A------|-----3-4-4-5-5-----|-----3-4-4-5-5------|
E------|-5-5---------------|-5-5----------------|

G-----------------------------------------|
D-----------------------------------------|
A-----3-4-5-5/7-7/8-8/10-10/12-12-12------|
E-5-5--------------------------------12\5-|

Chorus
G-----------------------------------------------------------------|
D-----------------5-5-3-3-2-2-------------------------------------|
A-5-5-3-3-2-2-0-0-------------5-5-3-3-2-2-----------2---3-2-5-3-2-|
E-----------------------------------------5-5-3-3-5---5-----------|

G-------------------------------------------------------|
D-----------------5-5-3-3-2-2---------------2---2-2-----|
A-5-5-3-3-2-2-0-0-------------5-5-3----2----------------|
E------------------------------------------0--0-----0-0-|

End (Coming off of last Verse)
G----------|---------------------------------------|
D----------|---------------------------------------|
A-12-12-12\|2-2-2-2-3-3-2-0-------------3-3-2-0----|
E----------|---------------------------------------|
            

comments powered by Disqus
↑ Back to top | Beatles Bass for Lady Madonna. Lyrics for acoustic guitar and electric guitar. Tablatures and chords are parodies/interpretations of the original songs. You may use it for private study, scholarship, research or language learning purposes only