» » »

I'm So Tired Bass tabs (ver.1)

Artists:  A B C D E F G H I J K L M N O P Q R S T U V W X Y Z # 

I'm So Tired Bass tabs (ver.1)

Beatles
Rating:
0/5 (0 votes)

Hard to play? Try these video lessons and learn fast.
                G -----------------------------------------------------------------------2-----||
D -----------------0--2--------0--2--------------2--2--2--2--4--4--4--4-------.||
A -----------0--4--------0--4--------0--0--0--0-------------------------------.||
E --0--2--4--------------------------------------------------------------------||

                                                                               
                              
G ---------------------------------------------------
D ---------------------------------------------------
A --0--0--0--0--0--0--0--0--0--0--0--0--0--0--0--0---
E ---------------------------------------------------
                                                                               

                              
G ---------------------------------------------------
D --2--2--2--2--2--2--2--2--2--2--2--2--2--2--2--2---
A ---------------------------------------------------
E ---------------------------------------------------
                                                                             

                   
G ------------------------------------------------------------||
D --0--0--0--0--0--0--0--0--0--0--0--0--0--------------------.||
A -----------------------------------------0--0--------------.||
E --------------------------------------------------0--2--4---||
            
Hard to play? Try these video lessons and learn fast. | Correct




comments powered by Disqus
↑ Back to top | Tablatures and chords are parodies/interpretations of the original songs. You may use it for private study, scholarship, research or language learning purposes only