» » »

Beatles, I Feel Fine: The Right Way Tabs (ver.1)

Artists:  A B C D E F G H I J K L M N O P Q R S T U V W X Y Z # 

I Feel Fine: The Right Way Tabs (ver.1)

Beatles Tabs
 Rating:
4/5 (4 votes)
I Feel Fine: The Right Way lessons Tabs too difficult? Try these video lessons and learn fast
                This the best way to play this. Simple and it sounds right. 
I have no idea how you could simulate the sitarry bit at the start but this is basically most of the song so...pay away.

E  -----------------------------------------------------------------
B  ------------------------------------------------------------------------
G  ----------12-11-10-11----------------10-9-7-9------------
D  12-12-10-----------------10-10-8----------------5-5-3-----
A  -----------------------------------------------------------------
E   -----------------------------------------------------------------


E  -----------------------------------------------------------------
B  -----------------------------------------------------------------  
G  -5-4-2-4------------5-4-2-4----------------------------------
D  -------------5-5-3----------------------------------------------
A  -----------------------------------------------------------------
E   -----------------------------------------------------------------
            
Submit corrections

comments powered by Disqus
↑ Back to top | Beatles Tabs for I Feel Fine: The Right Way. Lyrics for acoustic guitar and electric guitar. Tablatures and chords are parodies/interpretations of the original songs. You may use it for private study, scholarship, research or language learning purposes only