» » »

I Don T Want To Spoil The Party Tabs (ver.2)

Artists:  A B C D E F G H I J K L M N O P Q R S T U V W X Y Z # 

I Don T Want To Spoil The Party Tabs (ver.2)

Beatles
Rating:
0/5 (0 votes)

Hard to play? Try these video lessons and learn fast.
                Intro/Outro


e|3-------------3--------3----3---------------3-------3---------------|
B|3-------------3--------3----3---------------0-------3-------0-------|
G|0-------------0--------0----0-------0-------0-------0---------------|
D|0-------------0--------0----0-------3---------------2---------------|
A|2-------------------------------------------------------------------|
E|3-------------------------------------------------------------------|

e|--------3--------------3----3-------------- 3---------------3-------|
B|1-------1--------------1----1---------------1---------------1-------|
G|2-------2--------------2----2---------------2-------2-------2-------|
D|0-------0--------------0----0-------3---------------2---------------|
A|--------------------------------------------------------------------|
E|--------------------------------------------------------------------|

e|--------2---2----------2---2-----------------2---------------2------|
B|--------3---3----------3---3-----------------3-------3-------1------|
G|2-------2---2----------2---2-----------------2-------2-------2------|
D|0---------------------------------2------------------4--------------|
A|-------------------------------------------------------------0------|
E|--------------------------------------------------------------------|

e|3-------3--------3-----3----3-----3---------------------------------|
B|3-------3--------3-----3----3-----3---------------------------------|
G|0-------0--------0-----0----0-----0---------------------------------|
D|0-------0--------0-----0----0-----0---------------------------------|
A|2-------------------------------------------------------------------|
E|3-------------------------------------------------------------------|







| /  slide up
| \  slide down
| h  hammer-on
| p  pull-off
| ~  vibrato
| +  harmonic
| x  Mute note
            
Hard to play? Try these video lessons and learn fast. | Correct




comments powered by Disqus
↑ Back to top | Tablatures and chords are parodies/interpretations of the original songs. You may use it for private study, scholarship, research or language learning purposes only