» » »

Hey Bulldog Bass tabs (ver.1)

Artists:  A B C D E F G H I J K L M N O P Q R S T U V W X Y Z # 

Hey Bulldog Bass tabs (ver.1)

Beatles
Rating:
0/5 (0 votes)

Hard to play? Try these video lessons and learn fast.
                (1)
Song HEY Bulldog
band beatles
bass player  paul mcartney

G|--------------------|
D|--------------------|
A|-----5---7----8--9--|
E|-7-7---7----7-------|

G|--------------------|
D|--------------------|
A|-----5---7----8--9--|
E|-7-7---7----7-------|


G|--------------------|
D|--------------------|
A|-----5---7----8--9--|
E|-7-7---7----7-------|

G|--------------------|
D|--------------------|
A|-----5---7----8--9--|
E|-7-7---7----7-------|

G|--------------------------|
D|--------------------------|
A|-----9-9-9-9--9-9-9-9-7-6-|
E|-7-7----------------------|

G|------------------------|
D|--------------7-9—7-9---|
A|-9-9-9-9-9-9------------|
E|------------------------|

G|----------------------|
D|-9-9-9-9-9-9-7-6------|
A|-----------------9-7--|
E|----------------------|

G|----------------9-----|
D|-----7---7-9/11---11--|
A|-9-9---9--------------|
E|----------------------|

G|------------------|
D|-7-7---7-4-4---4--|
A|-----7-------4----|
E|------------------|

G|--------------------|
D|---------------6----|
A|-7-7--7-9--7-9---7--|
E|--------------------|

G|-------------------|
D|-7-7---7-4-4-------|
A|-----7-------4-3---|
E|-------------------|

G|---------4-4------|
D|-----4-4-----4-4--|    
A|-2-2--------------|
E|------------------|

G|----|
D|----|
A|-2--|
E|----|

Well there it is I think I am the first one to tab it please rate it
            
Hard to play? Try these video lessons and learn fast. | Correct




comments powered by Disqus
↑ Back to top | Tablatures and chords are parodies/interpretations of the original songs. You may use it for private study, scholarship, research or language learning purposes only