» » »

Beatles, Here Comes The Sun Bass tabs (ver.1)

Artists:  A B C D E F G H I J K L M N O P Q R S T U V W X Y Z # 

Here Comes The Sun Bass tabs (ver.1)

Beatles Tabs
Rating:
0/5 (0 votes)
Here Comes The Sun  lessons Tabs too difficult? Try these video lessons and learn fast
                (1)
G-------------------|-------------------------------------------|
D-----------------2-|--7--7--7--7---7-777----------------6---6--|
A---------------2---|--0--0-----0-----------5-555-77-7-9---9---7|
E-10-9-7-5-0-4------|-------------------------------------------|

G-----------------------------|---------------------------------|
D-7-777-7-777-----------------|-7-5-7--------6----6-------------|
A--------------5-555-5-5-4-5-6|-------7--7-9---9----7-----------|
E-----------------------------|---------------------------------|

G---------------------------|------------------|--------------|.|
D-7--7-7--7-7-7-------------|-----------------2|-7-777-7------| | 
A-0----0--------5-5-5-5-7-7-|--------------2---|----------5---|.|
E---------------------------|10-9-7-5-0-4------|--------------| |


G-5----------------------|----------------------4-|.|
D---5-4----4-7-----------|-7-7-7--------------6---| |
A--------5---------------|-------5--7-7-7---7-----|.|
E------------------------|------------------------| |
                                                    

G------------------------|--------------------------------|
D------------------------|-7-777-7-777-------------6---6--|
A-7-7-7-7-7-7-7-7-7-7-7-7|-------------5-555-77-7-9--9---7|
E------------------------|--------------------------------|

G----------------------------|------------------------|
D-7-777-7-777----------------|-7-5-7---------6---6----|
A-------------5-555-5-5-4-5-6|--------7--7-9---9----7-|
E----------------------------|------------------------|

G----------------------------|--------------------|.|
D-7--7-7--7-7-7--------------|----------------2---| |
A-0----0--------5-5-5-5-7-7--|--------------2-----|.|
E----------------------------|10-9-7-5-0-4--------| |

G-------------------|------------|
D---------------2---|------------|
A-------------2-----|-3----------|
E10-9-7-5-0-4-------|------------|
            
Submit corrections

comments powered by Disqus
↑ Back to top | Beatles Bass for Here Comes The Sun. Lyrics for acoustic guitar and electric guitar. Tablatures and chords are parodies/interpretations of the original songs. You may use it for private study, scholarship, research or language learning purposes only