» » »

Beatles, Hello Goodbye Bass tabs (ver.1)

Artists:  A B C D E F G H I J K L M N O P Q R S T U V W X Y Z # 

Hello Goodbye Bass tabs (ver.1)

Beatles Tabs
 Rating:
4/5 (4 votes)
Hello Goodbye lessons Tabs too difficult? Try these video lessons and learn fast
1
                |------------------------|------------------------|------------------------|
 |3-----------------------|------------------------|5-----------------------|
 |------------------------|3-----------------------|------------------------|
 |------------------------|------------------------|------------------------|


 |------------------------|------------------------|------------------------|
 |7--5--3--2--------------|------------------------|------------2-----------|
 |------------5--3--2-----|---5--2--5-----5--2--5--|------3--5-----5--3p2---|
 |---------------------5--|3-----------3-----------|5--------------------5--|


 |------------------------|------------------------|-----------|
 |------------------------|5-----------------------|-----------|
 |---5--2--5--------2--5--|------------------------|-----------|
 |3-----------3--5--------|------------------------|-----------|  


 |------------------------|------------------------|------------------------|
 |------------------------|------------------------|------------------------|
 |3-----3-----2-----2-----|------------------------|------------------------|
 |------------------------|5-----5-----3-----3-----|1-----1-----4-----4-----|
 

 |------------------------|------------------------|------------------------|
 |------------------------|------------------------|------------------------|
 |3-----3-----2-----2-----|------------------------|------------1-----1-----|
 |------------------------|5-----5-----3-----3-----|1-----1-----------------|


 |---------------------5--|------------------------|------------------------|
 |---------------5-5h7----|3-----------------------|------------------------|
 |3-----3--5--7-----------|------------------------|3-----------------------|
 |------------------------|------------------------|------------------------|


 |------------------------|------------------------|------------------------|
 |5-----------------------|7--5--3--2--------------|------------------------|
 |------------------------|------------5--3--2-----|---5--2--5--------2--5--|
 |------------------------|---------------------5--|3-----------3--5--------|


 |------------------------|------------------------|------------------------|
 |---------2--------------|------------------------|5-----------------------|
 |---3--5-----5--3--2-----|---5--2--5--------2--5--|------------------------|
 |5--------------------5--|3-----------3--5--------|------------------------|


 |------------|------------------------|------------------------|
 |------------|------------------------|------------------------|
 |------------|3-----3-----2-----2-----|------------------------|
 |------------|------------------------|5-----5-----3-----3-----|   


 |------------------------|------------------------|------------------------|
 |------------------------|------------------------|------------------------|
 |------------------------|3-----3-----2-----2-----|------------------------|
 |1-----1-----4-----4-----|------------------------|5-----5-----3-----3-----|


 |------------------------|------------------------|------------------------|
 |------------------------|------------2--------2--|3-----------------------|
 |------------1-----1-----|3-----3--5-----3--5-----|------------------------|
 |1-----1-----------------|------------------------|------------------------|


 |------------------------|------------------------|------------------------|
 |------------------------|5-----------------------|7--5--3--2--------------|
 |3-----------------------|------------------------|------------5--3--2-----|
 |------------------------|------------------------|---------------------5--|


 |------------------------|------------------------|------------------------|
 |------------------------|------------2-----------|------------------------|
 |---5--2--5--------2--5--|------3--5-----5--3p2---|---2--5--2--------2--5--|
 |3-----------3--5--------|5--5-----------------5--|3-----------3--5--------|


 |------------------------|------12\---|------------------------|
 |5-----------------------|------------|------------------------|
 |------------------------|------------|3-----3-----2-----2-----|
 |------------------------|------------|------------------------|


 |------------------------|------------------------|------------------------|
 |------------------------|------------------------|------------------------|
 |------------------------|------------------------|3-----3-----2-----2-----|
 |5-----5-----3-----3-----|1-----1-----4-----4-----|------------------------|


 |------------------------|------------------------|---------------------5--|
 |------------------------|------------------------|---------------5-5h7----|
 |------------------------|------------1-----1-----|3-----3--5--7-----------|
 |5-----5-----3-----3-----|1-----1-----------------|------------------------|


 |------------------------|------------------------|------------------------|
 |3-----------------------|------------------------|5-----------------------|
 |------------------------|3-----------------------|------------------------|
 |------------------------|------------------------|------------------------|


 |------------------------|------------------------|------------------------|
 |7--5--3--2--------------|------------------------|---------2--------------|
 |------------5--3--2-----|---5--2--5--------2--5--|---3--5-----5--3--2-----|
 |---------------------5--|3-----------3--5--------|5--------------------5--|


 |------------------------|------------------------|---10/12-12-12-12-12\---|
 |------------------------|5-----------------------|------------------------|
 |---5--2--5--------2--5--|------------------------|------------------------|
 |3-----------3--5--------|------------------------|------------------------|


 |------------------------|------------------------|------------------------|
 |------------------------|------------------------|------------------------|
 |3-----3-----2-----2-----|------------------------|------------------------|
 |------------------------|5-----5-----3-----3-----|1-----1-----4-----4-----|
 

 |------------------------|------------------------|------------------------|
 |------------------------|------------------------|------------------------|
 |3-----3-----2-----2-----|------------------------|------------1-----1-----|
 |------------------------|5-----5-----3-----3-----|1-----1-----------------|


 |------------------------|------------------------|------------------------|
 |------------------------|------------------------|------------------------|
 |3-----3-----2-----2-----|------------------------|------------------------|
 |------------------------|5-----5-----3-----3-----|1-----1-----4-----4-----|


 |------------------------|------------------------|------------------------|
 |---6-----6-----5-----5--|---4-----4-----3-----3--|------------------------|
 |------------------------|------------------------|3-----------------------|
 |4-----4-----3-----3-----|2-----2-----1-----1-----|------------------------|


 |------------------------|------------------------|------------------------|
 |------------------------|------------------------|------------------------|
 |------------------------|3-----3-----3-----3-----|3-----3-----3-----3-----|
 |------------------------|------------------------|------------------------|


 |------------------------|------------------------|------------------------|
 |------------------------|------------------------|------------------------|
 |3-----3-----3-----3-----|3-----3-----3-----3-----|3-----3-----3-----3-----|
 |------------------------|------------------------|------------------------|
            
Submit corrections

comments powered by Disqus
↑ Back to top | Beatles Bass for Hello Goodbye. Lyrics for acoustic guitar and electric guitar. 1 Tablatures and chords are parodies/interpretations of the original songs. You may use it for private study, scholarship, research or language learning purposes only