» » »

Beatles, Happiness Is A Warm Gun Bass tabs (ver.2)

Artists:  A B C D E F G H I J K L M N O P Q R S T U V W X Y Z # 

Happiness Is A Warm Gun Bass tabs (ver.2)

Beatles Tabs
 Rating:
4/5 (4 votes)
Happiness Is A Warm Gun lessons Tabs too difficult? Try these video lessons and learn fast
                HAPPINESS IS A WARM GUN

By John Lennon

  4/4
G|---------------------------------|-----------------9-9-9-9-9-9-9---|
D|---------------------------------|---------------------------------|
A|---------------------------------|---------------------------------|
E|---------------------------------|---------------------------------|

                                    2/4
G|---------------------------------|-----------------|
D|---------------------------------|-----------------|
A|-5---------------5---------------|-5---------------|
E|---------5---------------5-------|---------5-------|

  4/4
G|---------------------------------|---------------------------------|
D|-7---------------7---------------|---------------------------------|
A|---------7---------------7-------|-5---------------5---------------|
E|---------------------------------|---------5---------------5-------|

G|---------------------------------|---------------------------------|
D|-7---------------7---------------|---------------------------------|
A|---------7-------------------3---|-5---------------5---------------|
E|-------------------------5-5-----|---------5---------------5-------|

                                    5/4
G|---------------------------------|-----------------------------------------|
D|-7---------------7---------------|-----------------------------------------|
A|---------7---------------7-------|-5---------------5---------------5-------|
E|---------------------------------|---------5---------------5---------------|

  4/4                               9/8
G|-----------------9-9-9-9-7\5-----|-------------------------------------|
D|-7---------------------------7-5-|-7---------------5---6---7-----------|
A|---------7-----------------------|-------------7-----------------------|
E|---------------------------------|-------------------------------------|

  12/8
G|-------------------------------------------------|
D|-------------7---------------5---6---7---8---9---|
A|-7-----------------------7-----------------------|
E|-------------------------------------------------|

G|-------------------------------------------------|
D|-10--------------9---8---7-----------------------|
A|-------------10----------------------7-----------|
E|-------------------------------------------------|

  9/8
G|-------------------------------------|
D|-7---------------5---6---7-----------|
A|-------------7-----------------------|
E|-------------------------------------|

  12/8
G|-------------------------------------------------|
D|-------------7---------------5---6---7---8---9---|
A|-7-----------------------7-----------------------|
E|-------------------------------------------------|

G|-------------------------------------------------|
D|-10--------------9---8---7-----------------------|
A|-------------10----------------------------------|
E|-------------------------------------------------|

  9/8
G|-------------------------------------|
D|-5-5-5-5---5-----2---5---7---5-------|
A|-------------3-------------------7---|
E|-------------------------------------|

  10/8
G|-----------------------------------------|
D|-------------------------5---3-----------|
A|-----------------2---5-----------5-------|
E|-5-5-5-5---5-3-----------------------3---|

  9/8
G|-------------------------------------|
D|-----------------2---5---7---5-------|
A|-------------3-------------------7---|
E|-3-3-3-3---3-------------------------|

  10/8
G|-----------------------------------------|
D|-------------------------5---3-----------|
A|-----------------2---5-----------5-------|
E|-5-5-5-5---5-3-----------------------3---|

  9/8
G|-------------------------------------|
D|-----------------2---5---7---5-------|
A|-------------3-------------------7---|
E|-3-3-3-3---3-------------------------|

  10/8
G|-----------------------------------------|
D|-------------------------5---3-----------|
A|-----------------2---5-----------5-------|
E|-5-5-5-5---5-3-----------------------3---|

  4/4
G|---------------------------------|---------------------------------|
D|---------------------------------|---------------------------------|
A|-3-----------2---0---------------|-------------------------0---2---|
E|-----------------------------3---|-1---------------3---------------|

G|---------------------------------|---------------------------------|
D|---------------------------------|---------------------------------|
A|-3-----------2---0---------------|-------------------------0---2---|
E|-----------------------------3---|-1---------------3---------------|

  12/8
G|-------------------------------------------------|
D|-------------------------------------------------|
A|-3-----------0-----------------------------------|
E|-------------------------1-----------3-----------|

G|-------------------------------------------------|
D|-------------------------------------------------|
A|-3-----------0-----------------------------------|
E|-------------------------1-----------3-----------|

G|-------------------------------------------------|
D|-------------------------------------------------|
A|-3-----------0-----------------------------------|
E|-------------------------1-----------3-----------|

  4/4
G|---------------------------------|---------------------------------|
D|---------------------------------|---------------------------------|
A|-3-----------2---0---------------|-------------------------0---2---|
E|-------------------------3-------|-1-----------1---3---------------|

G|---------------------------------|---------------------------------|
D|---------------------------------|---------------------------------|
A|-3-----------2---0---------------|-------------------------0---2---|
E|-------------------------3-------|-1-----------1---3---------------|

                                    2/4
G|---------------------------------|-----------------|
D|---------------------------------|-----------------|
A|-3-------------------------------|-----------------|
E|---------------------------------|-----------------|

  4/4
G|---------------------------------|---------------------------------|
D|---------------------------------|---------------------------------|
A|-3-----------2---0---------------|-------------------------0---2---|
E|-------------------------3-------|-1-----------1---3---------------|

G|---------------------------------|---------------------------------|
D|---------------------------------|---------------------------------|
A|-3-----------2---0---------------|-------------------------0---2---|
E|-------------------------3-------|-1-----------1---3---------------|

G|---------------------------------|
D|---------------------------------|
A|-3-------------------------------|
E|---------------------------------|
            
Submit corrections

comments powered by Disqus
↑ Back to top | Beatles Bass for Happiness Is A Warm Gun. Lyrics for acoustic guitar and electric guitar. Tablatures and chords are parodies/interpretations of the original songs. You may use it for private study, scholarship, research or language learning purposes only